  0
SECTION
  2
HEADER
  9
$ACADVER
  1
AC1009
  9
$FILLMODE
 70
0
  9
$EXTMIN
 10
-5.4300
 20
-3.0800
 30
0.0000
  9
$EXTMAX
 10
21.4300
 20
25.2557
 30
0.0000
  0
ENDSEC
  0
SECTION
  2
TABLES
  0
TABLE
  2
LTYPE
 70
1
  0
LTYPE
  2
CONTINUOUS
 70
64
  3
Solid line
 72
65
 73
0
 40
0
  0
ENDTAB
  0
TABLE
  2
LAYER
 70
255
  0
LAYER
  2
20
 70
64
 62
7
  6
CONTINUOUS
  0
LAYER
  2
21
 70
64
 62
253
  6
CONTINUOUS
  0
LAYER
  2
47
 70
64
 62
253
  6
CONTINUOUS
  0
LAYER
  2
48
 70
64
 62
253
  6
CONTINUOUS
  0
LAYER
  2
52
 70
64
 62
253
  6
CONTINUOUS
  0
ENDTAB
  0
ENDSEC
  0
SECTION
  2
BLOCKS
  0
BLOCK
  8
0
  2
RECT
 70
64
 10
0.0000
 20
0.0000
 30
0.0000
  3
RECT
  0
SOLID
  8
0
 10
-0.5000
 20
-0.5000
 30
0.0000
 11
0.5000
 21
-0.5000
 31
0.0000
 12
-0.5000
 22
0.5000
 32
0.0000
 13
0.5000
 23
0.5000
 33
0.0000
  0
ENDBLK
  8
0
  0
BLOCK
  8
0
  2
PIE
 70
64
 10
0.0000
 20
0.0000
 30
0.0000
  3
PIE
  0
CIRCLE
  8
0
 10
0.0000
 20
0.0000
 30
0.0000
 40
0.5000
  0
ENDBLK
  8
0
  0
BLOCK
  8
0
  2
OCTAGONP
 70
64
 10
0.0000
 20
0.0000
 30
0.0000
  3
OCTAGONP
  0
POLYLINE
  8
0
 66
1
 10
0.0000
 20
0.0000
 30
0.0000
 40
0.0000
 41
0.0000
 70
1
  0
VERTEX
  8
0
 10
-0.5000
 20
-0.2071
 30
0.0000
  0
VERTEX
  8
0
 10
-0.5000
 20
0.2071
 30
0.0000
  0
VERTEX
  8
0
 10
-0.2071
 20
0.5000
 30
0.0000
  0
VERTEX
  8
0
 10
0.2071
 20
0.5000
 30
0.0000
  0
VERTEX
  8
0
 10
0.5000
 20
0.2071
 30
0.0000
  0
VERTEX
  8
0
 10
0.5000
 20
-0.2071
 30
0.0000
  0
VERTEX
  8
0
 10
0.2071
 20
-0.5000
 30
0.0000
  0
VERTEX
  8
0
 10
-0.2071
 20
-0.5000
 30
0.0000
  0
SEQEND
  8
0
  0
ENDBLK
  8
0
  0
BLOCK
  8
0
  2
SQUAREP
 70
64
 10
0.0000
 20
0.0000
 30
0.0000
  3
SQUAREP
  0
SOLID
  8
0
 10
-0.5000
 20
-0.5000
 30
0.0000
 11
0.5000
 21
-0.5000
 31
0.0000
 12
-0.5000
 22
0.5000
 32
0.0000
 13
0.5000
 23
0.5000
 33
0.0000
  0
ENDBLK
  8
0
  0
BLOCK
  8
0
  2
ROUNDP
 70
64
 10
0.0000
 20
0.0000
 30
0.0000
  3
ROUNDP
  0
CIRCLE
  8
0
 10
0.0000
 20
0.0000
 30
0.0000
 40
0.5000
  0
ENDBLK
  8
0
  0
BLOCK
  8
0
  2
ANNULUSP
 70
64
 10
0.0000
 20
0.0000
 30
0.0000
  3
ANNULUSP
  0
CIRCLE
  8
0
 10
0.0000
 20
0.0000
 30
0.0000
 40
0.5000
  0
ENDBLK
  8
0
  0
BLOCK
  8
0
  2
THERMALP
 70
64
 10
0.0000
 20
0.0000
 30
0.0000
  3
THERMALP
  0
LINE
  8
0
 10
-0.2379
 20
0.4500
 30
0.0000
 11
0.2379
 21
0.4500
 31
0.0000
  0
LINE
  8
0
 10
0.4500
 20
0.2379
 30
0.0000
 11
0.4500
 21
-0.2379
 31
0.0000
  0
LINE
  8
0
 10
0.2379
 20
-0.4500
 30
0.0000
 11
-0.2379
 21
-0.4500
 31
0.0000
  0
LINE
  8
0
 10
-0.4500
 20
-0.2379
 30
0.0000
 11
-0.4500
 21
0.2379
 31
0.0000
  0
ENDBLK
  8
0
  0
BLOCK
  8
0
  2
OCTAGONV
 70
64
 10
0.0000
 20
0.0000
 30
0.0000
  3
OCTAGONV
  0
POLYLINE
  8
0
 66
1
 10
0.0000
 20
0.0000
 30
0.0000
 40
0.0000
 41
0.0000
 70
1
  0
VERTEX
  8
0
 10
-0.5000
 20
-0.2071
 30
0.0000
  0
VERTEX
  8
0
 10
-0.5000
 20
0.2071
 30
0.0000
  0
VERTEX
  8
0
 10
-0.2071
 20
0.5000
 30
0.0000
  0
VERTEX
  8
0
 10
0.2071
 20
0.5000
 30
0.0000
  0
VERTEX
  8
0
 10
0.5000
 20
0.2071
 30
0.0000
  0
VERTEX
  8
0
 10
0.5000
 20
-0.2071
 30
0.0000
  0
VERTEX
  8
0
 10
0.2071
 20
-0.5000
 30
0.0000
  0
VERTEX
  8
0
 10
-0.2071
 20
-0.5000
 30
0.0000
  0
SEQEND
  8
0
  0
ENDBLK
  8
0
  0
BLOCK
  8
0
  2
SQUAREV
 70
64
 10
0.0000
 20
0.0000
 30
0.0000
  3
SQUAREV
  0
SOLID
  8
0
 10
-0.5000
 20
-0.5000
 30
0.0000
 11
0.5000
 21
-0.5000
 31
0.0000
 12
-0.5000
 22
0.5000
 32
0.0000
 13
0.5000
 23
0.5000
 33
0.0000
  0
ENDBLK
  8
0
  0
BLOCK
  8
0
  2
ROUNDV
 70
64
 10
0.0000
 20
0.0000
 30
0.0000
  3
ROUNDV
  0
CIRCLE
  8
0
 10
0.0000
 20
0.0000
 30
0.0000
 40
0.5000
  0
ENDBLK
  8
0
  0
BLOCK
  8
0
  2
ANNULUSV
 70
64
 10
0.0000
 20
0.0000
 30
0.0000
  3
ANNULUSV
  0
CIRCLE
  8
0
 10
0.0000
 20
0.0000
 30
0.0000
 40
0.5000
  0
ENDBLK
  8
0
  0
BLOCK
  8
0
  2
THERMALV
 70
64
 10
0.0000
 20
0.0000
 30
0.0000
  3
THERMALV
  0
LINE
  8
0
 10
-0.2379
 20
0.4500
 30
0.0000
 11
0.2379
 21
0.4500
 31
0.0000
  0
LINE
  8
0
 10
0.4500
 20
0.2379
 30
0.0000
 11
0.4500
 21
-0.2379
 31
0.0000
  0
LINE
  8
0
 10
0.2379
 20
-0.4500
 30
0.0000
 11
-0.2379
 21
-0.4500
 31
0.0000
  0
LINE
  8
0
 10
-0.4500
 20
-0.2379
 30
0.0000
 11
-0.4500
 21
0.2379
 31
0.0000
  0
ENDBLK
  8
0
  0
BLOCK
  8
0
  2
LONGP80
 70
64
 10
0.0000
 20
0.0000
 30
0.0000
  3
LONGP80
  0
POLYLINE
  8
0
 66
1
 10
0.0000
 20
0.0000
 30
0.0000
 40
0.0000
 41
0.0000
 70
1
  0
VERTEX
  8
0
 10
-0.4000
 20
-0.5000
 30
0.0000
  0
VERTEX
  8
0
 10
0.4000
 20
-0.5000
 30
0.0000
 42
1.0000
  0
VERTEX
  8
0
 10
0.4000
 20
0.5000
 30
0.0000
  0
VERTEX
  8
0
 10
-0.4000
 20
0.5000
 30
0.0000
 42
1.0000
  0
SEQEND
  8
0
  0
ENDBLK
  8
0
  0
ENDSEC
  0
SECTION
  2
ENTITIES
  0
ARC
  8
20
 10
2.5000
 20
19.0000
 30
0.0000
 40
2.5000
 50
90.0000
 51
180.0000
  0
LINE
  8
20
 10
2.5000
 20
21.5000
 30
0.0000
 11
13.5000
 21
21.5000
 31
0.0000
  0
ARC
  8
20
 10
13.5000
 20
19.0000
 30
0.0000
 40
2.5000
 50
0.0000
 51
90.0000
  0
LINE
  8
20
 10
16.0000
 20
19.0000
 30
0.0000
 11
16.0000
 21
2.5000
 31
0.0000
  0
ARC
  8
20
 10
13.5000
 20
2.5000
 30
0.0000
 40
2.5000
 50
270.0000
 51
0.0000
  0
LINE
  8
20
 10
13.5000
 20
0.0000
 30
0.0000
 11
2.5000
 21
0.0000
 31
0.0000
  0
ARC
  8
20
 10
2.5000
 20
2.5000
 30
0.0000
 40
2.5000
 50
180.0000
 51
270.0000
  0
LINE
  8
20
 10
0.0000
 20
2.5000
 30
0.0000
 11
0.0000
 21
19.0000
 31
0.0000
  0
CIRCLE
  8
20
 10
2.5000
 20
8.0000
 30
0.0000
 40
1.2500
  0
CIRCLE
  8
20
 10
13.5000
 20
8.0000
 30
0.0000
 40
1.2500
  0
CIRCLE
  8
20
 10
2.5000
 20
19.0000
 30
0.0000
 40
1.2500
  0
CIRCLE
  8
20
 10
13.5000
 20
19.0000
 30
0.0000
 40
1.2500
  0
INSERT
  8
52
  2
RECT
 10
11.8100
 20
4.0000
 30
0.0000
 41
0.5080
 42
0.5080
 43
1.0000
 50
0.0000
  0
INSERT
  8
52
  2
RECT
 10
9.2700
 20
4.0000
 30
0.0000
 41
0.5080
 42
0.5080
 43
1.0000
 50
0.0000
  0
INSERT
  8
52
  2
RECT
 10
6.7300
 20
4.0000
 30
0.0000
 41
0.5080
 42
0.5080
 43
1.0000
 50
0.0000
  0
INSERT
  8
52
  2
RECT
 10
4.1900
 20
4.0000
 30
0.0000
 41
0.5080
 42
0.5080
 43
1.0000
 50
0.0000
  0
INSERT
  8
52
  2
RECT
 10
1.6500
 20
4.0000
 30
0.0000
 41
0.5080
 42
0.5080
 43
1.0000
 50
0.0000
  0
INSERT
  8
52
  2
RECT
 10
14.3500
 20
4.0000
 30
0.0000
 41
0.5080
 42
0.5080
 43
1.0000
 50
0.0000
  0
LINE
  8
21
 10
10.2800
 20
19.0000
 30
0.0000
 11
5.7200
 21
19.0000
 31
0.0000
  0
LINE
  8
21
 10
5.7200
 20
19.0000
 30
0.0000
 11
2.5000
 21
15.7800
 31
0.0000
  0
LINE
  8
21
 10
2.5000
 20
15.7800
 30
0.0000
 11
2.5000
 21
11.2200
 31
0.0000
  0
LINE
  8
21
 10
2.5000
 20
11.2200
 30
0.0000
 11
5.7200
 21
8.0000
 31
0.0000
  0
LINE
  8
21
 10
5.7200
 20
8.0000
 30
0.0000
 11
10.2800
 21
8.0000
 31
0.0000
  0
LINE
  8
21
 10
10.2800
 20
8.0000
 30
0.0000
 11
13.5000
 21
11.2200
 31
0.0000
  0
LINE
  8
21
 10
13.5000
 20
11.2200
 30
0.0000
 11
13.5000
 21
15.7800
 31
0.0000
  0
LINE
  8
21
 10
13.5000
 20
15.7800
 30
0.0000
 11
10.2800
 21
19.0000
 31
0.0000
  0
LINE
  8
21
 10
7.3650
 20
15.4050
 30
0.0000
 11
8.6350
 21
15.4050
 31
0.0000
  0
LINE
  8
21
 10
8.6350
 20
15.4050
 30
0.0000
 11
8.0000
 21
16.5000
 31
0.0000
  0
LINE
  8
21
 10
8.0000
 20
16.5000
 30
0.0000
 11
7.3650
 21
15.4050
 31
0.0000
  0
CIRCLE
  8
20
 10
9.0000
 20
16.5000
 30
0.0000
 40
0.5250
  0
ENDSEC
  0
EOF
