  0
SECTION
  2
HEADER
  9
$ACADVER
  1
AC1009
  9
$FILLMODE
 70
0
  9
$EXTMIN
 10
-43.0848
 20
-27.0848
 30
0.0000
  9
$EXTMAX
 10
44.6976
 20
27.0848
 30
0.0000
  0
ENDSEC
  0
SECTION
  2
TABLES
  0
TABLE
  2
LTYPE
 70
1
  0
LTYPE
  2
CONTINUOUS
 70
64
  3
Solid line
 72
65
 73
0
 40
0
  0
ENDTAB
  0
TABLE
  2
LAYER
 70
255
  0
LAYER
  2
19
 70
64
 62
2
  6
CONTINUOUS
  0
LAYER
  2
20
 70
64
 62
7
  6
CONTINUOUS
  0
LAYER
  2
21
 70
64
 62
253
  6
CONTINUOUS
  0
LAYER
  2
29
 70
64
 62
253
  6
CONTINUOUS
  0
LAYER
  2
45
 70
64
 62
253
  6
CONTINUOUS
  0
LAYER
  2
51
 70
64
 62
253
  6
CONTINUOUS
  0
ENDTAB
  0
ENDSEC
  0
SECTION
  2
BLOCKS
  0
BLOCK
  8
0
  2
RECT
 70
64
 10
0.0000
 20
0.0000
 30
0.0000
  3
RECT
  0
SOLID
  8
0
 10
-0.5000
 20
-0.5000
 30
0.0000
 11
0.5000
 21
-0.5000
 31
0.0000
 12
-0.5000
 22
0.5000
 32
0.0000
 13
0.5000
 23
0.5000
 33
0.0000
  0
ENDBLK
  8
0
  0
BLOCK
  8
0
  2
PIE
 70
64
 10
0.0000
 20
0.0000
 30
0.0000
  3
PIE
  0
CIRCLE
  8
0
 10
0.0000
 20
0.0000
 30
0.0000
 40
0.5000
  0
ENDBLK
  8
0
  0
BLOCK
  8
0
  2
OCTAGONP
 70
64
 10
0.0000
 20
0.0000
 30
0.0000
  3
OCTAGONP
  0
POLYLINE
  8
0
 66
1
 10
0.0000
 20
0.0000
 30
0.0000
 40
0.0000
 41
0.0000
 70
1
  0
VERTEX
  8
0
 10
-0.5000
 20
-0.2071
 30
0.0000
  0
VERTEX
  8
0
 10
-0.5000
 20
0.2071
 30
0.0000
  0
VERTEX
  8
0
 10
-0.2071
 20
0.5000
 30
0.0000
  0
VERTEX
  8
0
 10
0.2071
 20
0.5000
 30
0.0000
  0
VERTEX
  8
0
 10
0.5000
 20
0.2071
 30
0.0000
  0
VERTEX
  8
0
 10
0.5000
 20
-0.2071
 30
0.0000
  0
VERTEX
  8
0
 10
0.2071
 20
-0.5000
 30
0.0000
  0
VERTEX
  8
0
 10
-0.2071
 20
-0.5000
 30
0.0000
  0
SEQEND
  8
0
  0
ENDBLK
  8
0
  0
BLOCK
  8
0
  2
SQUAREP
 70
64
 10
0.0000
 20
0.0000
 30
0.0000
  3
SQUAREP
  0
SOLID
  8
0
 10
-0.5000
 20
-0.5000
 30
0.0000
 11
0.5000
 21
-0.5000
 31
0.0000
 12
-0.5000
 22
0.5000
 32
0.0000
 13
0.5000
 23
0.5000
 33
0.0000
  0
ENDBLK
  8
0
  0
BLOCK
  8
0
  2
ROUNDP
 70
64
 10
0.0000
 20
0.0000
 30
0.0000
  3
ROUNDP
  0
CIRCLE
  8
0
 10
0.0000
 20
0.0000
 30
0.0000
 40
0.5000
  0
ENDBLK
  8
0
  0
BLOCK
  8
0
  2
ANNULUSP
 70
64
 10
0.0000
 20
0.0000
 30
0.0000
  3
ANNULUSP
  0
CIRCLE
  8
0
 10
0.0000
 20
0.0000
 30
0.0000
 40
0.5000
  0
ENDBLK
  8
0
  0
BLOCK
  8
0
  2
THERMALP
 70
64
 10
0.0000
 20
0.0000
 30
0.0000
  3
THERMALP
  0
LINE
  8
0
 10
-0.2379
 20
0.4500
 30
0.0000
 11
0.2379
 21
0.4500
 31
0.0000
  0
LINE
  8
0
 10
0.4500
 20
0.2379
 30
0.0000
 11
0.4500
 21
-0.2379
 31
0.0000
  0
LINE
  8
0
 10
0.2379
 20
-0.4500
 30
0.0000
 11
-0.2379
 21
-0.4500
 31
0.0000
  0
LINE
  8
0
 10
-0.4500
 20
-0.2379
 30
0.0000
 11
-0.4500
 21
0.2379
 31
0.0000
  0
ENDBLK
  8
0
  0
BLOCK
  8
0
  2
OCTAGONV
 70
64
 10
0.0000
 20
0.0000
 30
0.0000
  3
OCTAGONV
  0
POLYLINE
  8
0
 66
1
 10
0.0000
 20
0.0000
 30
0.0000
 40
0.0000
 41
0.0000
 70
1
  0
VERTEX
  8
0
 10
-0.5000
 20
-0.2071
 30
0.0000
  0
VERTEX
  8
0
 10
-0.5000
 20
0.2071
 30
0.0000
  0
VERTEX
  8
0
 10
-0.2071
 20
0.5000
 30
0.0000
  0
VERTEX
  8
0
 10
0.2071
 20
0.5000
 30
0.0000
  0
VERTEX
  8
0
 10
0.5000
 20
0.2071
 30
0.0000
  0
VERTEX
  8
0
 10
0.5000
 20
-0.2071
 30
0.0000
  0
VERTEX
  8
0
 10
0.2071
 20
-0.5000
 30
0.0000
  0
VERTEX
  8
0
 10
-0.2071
 20
-0.5000
 30
0.0000
  0
SEQEND
  8
0
  0
ENDBLK
  8
0
  0
BLOCK
  8
0
  2
SQUAREV
 70
64
 10
0.0000
 20
0.0000
 30
0.0000
  3
SQUAREV
  0
SOLID
  8
0
 10
-0.5000
 20
-0.5000
 30
0.0000
 11
0.5000
 21
-0.5000
 31
0.0000
 12
-0.5000
 22
0.5000
 32
0.0000
 13
0.5000
 23
0.5000
 33
0.0000
  0
ENDBLK
  8
0
  0
BLOCK
  8
0
  2
ROUNDV
 70
64
 10
0.0000
 20
0.0000
 30
0.0000
  3
ROUNDV
  0
CIRCLE
  8
0
 10
0.0000
 20
0.0000
 30
0.0000
 40
0.5000
  0
ENDBLK
  8
0
  0
BLOCK
  8
0
  2
ANNULUSV
 70
64
 10
0.0000
 20
0.0000
 30
0.0000
  3
ANNULUSV
  0
CIRCLE
  8
0
 10
0.0000
 20
0.0000
 30
0.0000
 40
0.5000
  0
ENDBLK
  8
0
  0
BLOCK
  8
0
  2
THERMALV
 70
64
 10
0.0000
 20
0.0000
 30
0.0000
  3
THERMALV
  0
LINE
  8
0
 10
-0.2379
 20
0.4500
 30
0.0000
 11
0.2379
 21
0.4500
 31
0.0000
  0
LINE
  8
0
 10
0.4500
 20
0.2379
 30
0.0000
 11
0.4500
 21
-0.2379
 31
0.0000
  0
LINE
  8
0
 10
0.2379
 20
-0.4500
 30
0.0000
 11
-0.2379
 21
-0.4500
 31
0.0000
  0
LINE
  8
0
 10
-0.4500
 20
-0.2379
 30
0.0000
 11
-0.4500
 21
0.2379
 31
0.0000
  0
ENDBLK
  8
0
  0
BLOCK
  8
0
  2
RECT6250X5750R30
 70
64
 10
0.0000
 20
0.0000
 30
0.0000
  3
RECT6250X5750R30
  0
POLYLINE
  8
0
 66
1
 10
0.0000
 20
0.0000
 30
0.0000
 40
0.0000
 41
0.0000
 70
1
  0
VERTEX
  8
0
 10
0.6250
 20
-0.4025
 30
0.0000
  0
VERTEX
  8
0
 10
0.6250
 20
0.4025
 30
0.0000
 42
0.4142
  0
VERTEX
  8
0
 10
0.4525
 20
0.5750
 30
0.0000
  0
VERTEX
  8
0
 10
-0.4525
 20
0.5750
 30
0.0000
 42
0.4142
  0
VERTEX
  8
0
 10
-0.6250
 20
0.4025
 30
0.0000
  0
VERTEX
  8
0
 10
-0.6250
 20
-0.4025
 30
0.0000
 42
0.4142
  0
VERTEX
  8
0
 10
-0.4525
 20
-0.5750
 30
0.0000
  0
VERTEX
  8
0
 10
0.4525
 20
-0.5750
 30
0.0000
 42
0.4142
  0
SEQEND
  8
0
  0
ENDBLK
  8
0
  0
BLOCK
  8
0
  2
RECT2250X6750R100
 70
64
 10
0.0000
 20
0.0000
 30
0.0000
  3
RECT2250X6750R100
  0
POLYLINE
  8
0
 66
1
 10
0.0000
 20
0.0000
 30
0.0000
 40
0.0000
 41
0.0000
 70
1
  0
VERTEX
  8
0
 10
0.2250
 20
-0.4500
 30
0.0000
  0
VERTEX
  8
0
 10
0.2250
 20
0.4500
 30
0.0000
 42
0.4142
  0
VERTEX
  8
0
 10
0.0000
 20
0.6750
 30
0.0000
  0
VERTEX
  8
0
 10
0.0000
 20
0.6750
 30
0.0000
 42
0.4142
  0
VERTEX
  8
0
 10
-0.2250
 20
0.4500
 30
0.0000
  0
VERTEX
  8
0
 10
-0.2250
 20
-0.4500
 30
0.0000
 42
0.4142
  0
VERTEX
  8
0
 10
0.0000
 20
-0.6750
 30
0.0000
  0
VERTEX
  8
0
 10
0.0000
 20
-0.6750
 30
0.0000
 42
0.4142
  0
SEQEND
  8
0
  0
ENDBLK
  8
0
  0
BLOCK
  8
0
  2
RECT6750X2250R100
 70
64
 10
0.0000
 20
0.0000
 30
0.0000
  3
RECT6750X2250R100
  0
POLYLINE
  8
0
 66
1
 10
0.0000
 20
0.0000
 30
0.0000
 40
0.0000
 41
0.0000
 70
1
  0
VERTEX
  8
0
 10
0.6750
 20
0.0000
 30
0.0000
  0
VERTEX
  8
0
 10
0.6750
 20
0.0000
 30
0.0000
 42
0.4142
  0
VERTEX
  8
0
 10
0.4500
 20
0.2250
 30
0.0000
  0
VERTEX
  8
0
 10
-0.4500
 20
0.2250
 30
0.0000
 42
0.4142
  0
VERTEX
  8
0
 10
-0.6750
 20
0.0000
 30
0.0000
  0
VERTEX
  8
0
 10
-0.6750
 20
0.0000
 30
0.0000
 42
0.4142
  0
VERTEX
  8
0
 10
-0.4500
 20
-0.2250
 30
0.0000
  0
VERTEX
  8
0
 10
0.4500
 20
-0.2250
 30
0.0000
 42
0.4142
  0
SEQEND
  8
0
  0
ENDBLK
  8
0
  0
BLOCK
  8
0
  2
RECT5750X7750R30
 70
64
 10
0.0000
 20
0.0000
 30
0.0000
  3
RECT5750X7750R30
  0
POLYLINE
  8
0
 66
1
 10
0.0000
 20
0.0000
 30
0.0000
 40
0.0000
 41
0.0000
 70
1
  0
VERTEX
  8
0
 10
0.5750
 20
-0.6025
 30
0.0000
  0
VERTEX
  8
0
 10
0.5750
 20
0.6025
 30
0.0000
 42
0.4142
  0
VERTEX
  8
0
 10
0.4025
 20
0.7750
 30
0.0000
  0
VERTEX
  8
0
 10
-0.4025
 20
0.7750
 30
0.0000
 42
0.4142
  0
VERTEX
  8
0
 10
-0.5750
 20
0.6025
 30
0.0000
  0
VERTEX
  8
0
 10
-0.5750
 20
-0.6025
 30
0.0000
 42
0.4142
  0
VERTEX
  8
0
 10
-0.4025
 20
-0.7750
 30
0.0000
  0
VERTEX
  8
0
 10
0.4025
 20
-0.7750
 30
0.0000
 42
0.4142
  0
SEQEND
  8
0
  0
ENDBLK
  8
0
  0
BLOCK
  8
0
  2
RECT5750X6250R30
 70
64
 10
0.0000
 20
0.0000
 30
0.0000
  3
RECT5750X6250R30
  0
POLYLINE
  8
0
 66
1
 10
0.0000
 20
0.0000
 30
0.0000
 40
0.0000
 41
0.0000
 70
1
  0
VERTEX
  8
0
 10
0.5750
 20
-0.4525
 30
0.0000
  0
VERTEX
  8
0
 10
0.5750
 20
0.4525
 30
0.0000
 42
0.4142
  0
VERTEX
  8
0
 10
0.4025
 20
0.6250
 30
0.0000
  0
VERTEX
  8
0
 10
-0.4025
 20
0.6250
 30
0.0000
 42
0.4142
  0
VERTEX
  8
0
 10
-0.5750
 20
0.4525
 30
0.0000
  0
VERTEX
  8
0
 10
-0.5750
 20
-0.4525
 30
0.0000
 42
0.4142
  0
VERTEX
  8
0
 10
-0.4025
 20
-0.6250
 30
0.0000
  0
VERTEX
  8
0
 10
0.4025
 20
-0.6250
 30
0.0000
 42
0.4142
  0
SEQEND
  8
0
  0
ENDBLK
  8
0
  0
BLOCK
  8
0
  2
RECT6750X3500R55
 70
64
 10
0.0000
 20
0.0000
 30
0.0000
  3
RECT6750X3500R55
  0
POLYLINE
  8
0
 66
1
 10
0.0000
 20
0.0000
 30
0.0000
 40
0.0000
 41
0.0000
 70
1
  0
VERTEX
  8
0
 10
0.6750
 20
-0.1575
 30
0.0000
  0
VERTEX
  8
0
 10
0.6750
 20
0.1575
 30
0.0000
 42
0.4142
  0
VERTEX
  8
0
 10
0.4825
 20
0.3500
 30
0.0000
  0
VERTEX
  8
0
 10
-0.4825
 20
0.3500
 30
0.0000
 42
0.4142
  0
VERTEX
  8
0
 10
-0.6750
 20
0.1575
 30
0.0000
  0
VERTEX
  8
0
 10
-0.6750
 20
-0.1575
 30
0.0000
 42
0.4142
  0
VERTEX
  8
0
 10
-0.4825
 20
-0.3500
 30
0.0000
  0
VERTEX
  8
0
 10
0.4825
 20
-0.3500
 30
0.0000
 42
0.4142
  0
SEQEND
  8
0
  0
ENDBLK
  8
0
  0
BLOCK
  8
0
  2
RECT6750X2450R90
 70
64
 10
0.0000
 20
0.0000
 30
0.0000
  3
RECT6750X2450R90
  0
POLYLINE
  8
0
 66
1
 10
0.0000
 20
0.0000
 30
0.0000
 40
0.0000
 41
0.0000
 70
1
  0
VERTEX
  8
0
 10
0.6750
 20
-0.0245
 30
0.0000
  0
VERTEX
  8
0
 10
0.6750
 20
0.0245
 30
0.0000
 42
0.4142
  0
VERTEX
  8
0
 10
0.4545
 20
0.2450
 30
0.0000
  0
VERTEX
  8
0
 10
-0.4545
 20
0.2450
 30
0.0000
 42
0.4142
  0
VERTEX
  8
0
 10
-0.6750
 20
0.0245
 30
0.0000
  0
VERTEX
  8
0
 10
-0.6750
 20
-0.0245
 30
0.0000
 42
0.4142
  0
VERTEX
  8
0
 10
-0.4545
 20
-0.2450
 30
0.0000
  0
VERTEX
  8
0
 10
0.4545
 20
-0.2450
 30
0.0000
 42
0.4142
  0
SEQEND
  8
0
  0
ENDBLK
  8
0
  0
BLOCK
  8
0
  2
RECT4687X5449R39
 70
64
 10
0.0000
 20
0.0000
 30
0.0000
  3
RECT4687X5449R39
  0
POLYLINE
  8
0
 66
1
 10
0.0000
 20
0.0000
 30
0.0000
 40
0.0000
 41
0.0000
 70
1
  0
VERTEX
  8
0
 10
0.4687
 20
-0.3622
 30
0.0000
  0
VERTEX
  8
0
 10
0.4687
 20
0.3622
 30
0.0000
 42
0.4142
  0
VERTEX
  8
0
 10
0.2860
 20
0.5449
 30
0.0000
  0
VERTEX
  8
0
 10
-0.2860
 20
0.5449
 30
0.0000
 42
0.4142
  0
VERTEX
  8
0
 10
-0.4687
 20
0.3622
 30
0.0000
  0
VERTEX
  8
0
 10
-0.4687
 20
-0.3622
 30
0.0000
 42
0.4142
  0
VERTEX
  8
0
 10
-0.2860
 20
-0.5449
 30
0.0000
  0
VERTEX
  8
0
 10
0.2860
 20
-0.5449
 30
0.0000
 42
0.4142
  0
SEQEND
  8
0
  0
ENDBLK
  8
0
  0
BLOCK
  8
0
  2
RECT7750X6500R27
 70
64
 10
0.0000
 20
0.0000
 30
0.0000
  3
RECT7750X6500R27
  0
POLYLINE
  8
0
 66
1
 10
0.0000
 20
0.0000
 30
0.0000
 40
0.0000
 41
0.0000
 70
1
  0
VERTEX
  8
0
 10
0.7750
 20
-0.4745
 30
0.0000
  0
VERTEX
  8
0
 10
0.7750
 20
0.4745
 30
0.0000
 42
0.4142
  0
VERTEX
  8
0
 10
0.5995
 20
0.6500
 30
0.0000
  0
VERTEX
  8
0
 10
-0.5995
 20
0.6500
 30
0.0000
 42
0.4142
  0
VERTEX
  8
0
 10
-0.7750
 20
0.4745
 30
0.0000
  0
VERTEX
  8
0
 10
-0.7750
 20
-0.4745
 30
0.0000
 42
0.4142
  0
VERTEX
  8
0
 10
-0.5995
 20
-0.6500
 30
0.0000
  0
VERTEX
  8
0
 10
0.5995
 20
-0.6500
 30
0.0000
 42
0.4142
  0
SEQEND
  8
0
  0
ENDBLK
  8
0
  0
ENDSEC
  0
SECTION
  2
ENTITIES
  0
LINE
  8
29
 10
-19.4728
 20
-0.3463
 30
0.0000
 11
-19.4728
 21
1.0818
 31
0.0000
  0
LINE
  8
29
 10
-19.4728
 20
1.0818
 30
0.0000
 11
-16.9730
 21
1.0818
 31
0.0000
  0
LINE
  8
29
 10
-16.9730
 20
1.0818
 30
0.0000
 11
-16.9084
 21
0.8633
 31
0.0000
  0
LINE
  8
29
 10
-16.9084
 20
0.8633
 30
0.0000
 11
-16.8037
 21
0.6609
 31
0.0000
  0
LINE
  8
29
 10
-16.8037
 20
0.6609
 30
0.0000
 11
-16.6626
 21
0.4820
 31
0.0000
  0
LINE
  8
29
 10
-16.6626
 20
0.4820
 30
0.0000
 11
-16.4901
 21
0.3330
 31
0.0000
  0
LINE
  8
29
 10
-16.4901
 20
0.3330
 30
0.0000
 11
-16.2927
 21
0.2194
 31
0.0000
  0
LINE
  8
29
 10
-16.2927
 20
0.2194
 30
0.0000
 11
-16.0772
 21
0.1451
 31
0.0000
  0
LINE
  8
29
 10
-16.0772
 20
0.1451
 30
0.0000
 11
-15.8517
 21
0.1129
 31
0.0000
  0
LINE
  8
29
 10
-15.8517
 20
0.1129
 30
0.0000
 11
-15.6241
 21
0.1240
 31
0.0000
  0
LINE
  8
29
 10
-15.6241
 20
0.1240
 30
0.0000
 11
-15.4027
 21
0.1779
 31
0.0000
  0
LINE
  8
29
 10
-15.4027
 20
0.1779
 30
0.0000
 11
-15.1955
 21
0.2727
 31
0.0000
  0
LINE
  8
29
 10
-15.1955
 20
0.2727
 30
0.0000
 11
-15.0099
 21
0.4050
 31
0.0000
  0
LINE
  8
29
 10
-15.0099
 20
0.4050
 30
0.0000
 11
-14.8528
 21
0.5700
 31
0.0000
  0
LINE
  8
29
 10
-14.8528
 20
0.5700
 30
0.0000
 11
-14.7296
 21
0.7617
 31
0.0000
  0
LINE
  8
29
 10
-14.7296
 20
0.7617
 30
0.0000
 11
-14.6450
 21
0.9733
 31
0.0000
  0
LINE
  8
29
 10
-14.6450
 20
0.9733
 30
0.0000
 11
-14.6019
 21
1.1970
 31
0.0000
  0
LINE
  8
29
 10
-14.6019
 20
1.1970
 30
0.0000
 11
-14.6019
 21
1.4249
 31
0.0000
  0
LINE
  8
29
 10
-14.6019
 20
1.4249
 30
0.0000
 11
-14.6450
 21
1.6486
 31
0.0000
  0
LINE
  8
29
 10
-14.6450
 20
1.6486
 30
0.0000
 11
-14.7297
 21
1.8602
 31
0.0000
  0
LINE
  8
29
 10
-14.7297
 20
1.8602
 30
0.0000
 11
-14.8528
 21
2.0519
 31
0.0000
  0
LINE
  8
29
 10
-14.8528
 20
2.0519
 30
0.0000
 11
-15.0100
 21
2.2169
 31
0.0000
  0
LINE
  8
29
 10
-15.0100
 20
2.2169
 30
0.0000
 11
-15.1955
 21
2.3492
 31
0.0000
  0
LINE
  8
29
 10
-15.1955
 20
2.3492
 30
0.0000
 11
-15.4028
 21
2.4440
 31
0.0000
  0
LINE
  8
29
 10
-15.4028
 20
2.4440
 30
0.0000
 11
-15.6242
 21
2.4979
 31
0.0000
  0
LINE
  8
29
 10
-15.6242
 20
2.4979
 30
0.0000
 11
-15.8518
 21
2.5089
 31
0.0000
  0
LINE
  8
29
 10
-15.8518
 20
2.5089
 30
0.0000
 11
-16.0773
 21
2.4767
 31
0.0000
  0
LINE
  8
29
 10
-16.0773
 20
2.4767
 30
0.0000
 11
-16.2927
 21
2.4024
 31
0.0000
  0
LINE
  8
29
 10
-16.2927
 20
2.4024
 30
0.0000
 11
-16.4902
 21
2.2887
 31
0.0000
  0
LINE
  8
29
 10
-16.4902
 20
2.2887
 30
0.0000
 11
-16.6626
 21
2.1397
 31
0.0000
  0
LINE
  8
29
 10
-16.6626
 20
2.1397
 30
0.0000
 11
-16.8037
 21
1.9608
 31
0.0000
  0
LINE
  8
29
 10
-16.8037
 20
1.9608
 30
0.0000
 11
-16.9085
 21
1.7584
 31
0.0000
  0
LINE
  8
29
 10
-16.9085
 20
1.7584
 30
0.0000
 11
-16.9730
 21
1.5399
 31
0.0000
  0
LINE
  8
29
 10
-16.9730
 20
1.5399
 30
0.0000
 11
-19.4728
 21
1.5399
 31
0.0000
  0
LINE
  8
29
 10
-19.4728
 20
1.5399
 30
0.0000
 11
-19.4728
 21
4.9877
 31
0.0000
  0
LINE
  8
29
 10
-19.4728
 20
4.9877
 30
0.0000
 11
-14.1388
 21
4.9877
 31
0.0000
  0
LINE
  8
29
 10
-14.1388
 20
4.9877
 30
0.0000
 11
-14.1388
 21
3.5596
 31
0.0000
  0
LINE
  8
29
 10
-14.1388
 20
3.5596
 30
0.0000
 11
-16.6386
 21
3.5596
 31
0.0000
  0
LINE
  8
29
 10
-16.6386
 20
3.5596
 30
0.0000
 11
-16.7031
 21
3.7781
 31
0.0000
  0
LINE
  8
29
 10
-16.7031
 20
3.7781
 30
0.0000
 11
-16.8079
 21
3.9805
 31
0.0000
  0
LINE
  8
29
 10
-16.8079
 20
3.9805
 30
0.0000
 11
-16.9490
 21
4.1594
 31
0.0000
  0
LINE
  8
29
 10
-16.9490
 20
4.1594
 30
0.0000
 11
-17.1214
 21
4.3084
 31
0.0000
  0
LINE
  8
29
 10
-17.1214
 20
4.3084
 30
0.0000
 11
-17.3189
 21
4.4221
 31
0.0000
  0
LINE
  8
29
 10
-17.3189
 20
4.4221
 30
0.0000
 11
-17.5343
 21
4.4964
 31
0.0000
  0
LINE
  8
29
 10
-17.5343
 20
4.4964
 30
0.0000
 11
-17.7598
 21
4.5286
 31
0.0000
  0
LINE
  8
29
 10
-17.7598
 20
4.5286
 30
0.0000
 11
-17.9874
 21
4.5176
 31
0.0000
  0
LINE
  8
29
 10
-17.9874
 20
4.5176
 30
0.0000
 11
-18.2088
 21
4.4637
 31
0.0000
  0
LINE
  8
29
 10
-18.2088
 20
4.4637
 30
0.0000
 11
-18.4161
 21
4.3689
 31
0.0000
  0
LINE
  8
29
 10
-18.4161
 20
4.3689
 30
0.0000
 11
-18.6016
 21
4.2366
 31
0.0000
  0
LINE
  8
29
 10
-18.6016
 20
4.2366
 30
0.0000
 11
-18.7588
 21
4.0716
 31
0.0000
  0
LINE
  8
29
 10
-18.7588
 20
4.0716
 30
0.0000
 11
-18.8819
 21
3.8799
 31
0.0000
  0
LINE
  8
29
 10
-18.8819
 20
3.8799
 30
0.0000
 11
-18.9666
 21
3.6683
 31
0.0000
  0
LINE
  8
29
 10
-18.9666
 20
3.6683
 30
0.0000
 11
-19.0097
 21
3.4446
 31
0.0000
  0
LINE
  8
29
 10
-19.0097
 20
3.4446
 30
0.0000
 11
-19.0097
 21
3.2167
 31
0.0000
  0
LINE
  8
29
 10
-19.0097
 20
3.2167
 30
0.0000
 11
-18.9666
 21
2.9930
 31
0.0000
  0
LINE
  8
29
 10
-18.9666
 20
2.9930
 30
0.0000
 11
-18.8820
 21
2.7814
 31
0.0000
  0
LINE
  8
29
 10
-18.8820
 20
2.7814
 30
0.0000
 11
-18.7588
 21
2.5897
 31
0.0000
  0
LINE
  8
29
 10
-18.7588
 20
2.5897
 30
0.0000
 11
-18.6017
 21
2.4247
 31
0.0000
  0
LINE
  8
29
 10
-18.6017
 20
2.4247
 30
0.0000
 11
-18.4161
 21
2.2924
 31
0.0000
  0
LINE
  8
29
 10
-18.4161
 20
2.2924
 30
0.0000
 11
-18.2089
 21
2.1976
 31
0.0000
  0
LINE
  8
29
 10
-18.2089
 20
2.1976
 30
0.0000
 11
-17.9875
 21
2.1437
 31
0.0000
  0
LINE
  8
29
 10
-17.9875
 20
2.1437
 30
0.0000
 11
-17.7599
 21
2.1326
 31
0.0000
  0
LINE
  8
29
 10
-17.7599
 20
2.1326
 30
0.0000
 11
-17.5344
 21
2.1648
 31
0.0000
  0
LINE
  8
29
 10
-17.5344
 20
2.1648
 30
0.0000
 11
-17.3189
 21
2.2391
 31
0.0000
  0
LINE
  8
29
 10
-17.3189
 20
2.2391
 30
0.0000
 11
-17.1215
 21
2.3527
 31
0.0000
  0
LINE
  8
29
 10
-17.1215
 20
2.3527
 30
0.0000
 11
-16.9490
 21
2.5017
 31
0.0000
  0
LINE
  8
29
 10
-16.9490
 20
2.5017
 30
0.0000
 11
-16.8079
 21
2.6806
 31
0.0000
  0
LINE
  8
29
 10
-16.8079
 20
2.6806
 30
0.0000
 11
-16.7032
 21
2.8830
 31
0.0000
  0
LINE
  8
29
 10
-16.7032
 20
2.8830
 30
0.0000
 11
-16.6386
 21
3.1015
 31
0.0000
  0
LINE
  8
29
 10
-16.6386
 20
3.1015
 30
0.0000
 11
-14.1388
 21
3.1015
 31
0.0000
  0
LINE
  8
29
 10
-14.1388
 20
3.1015
 30
0.0000
 11
-14.1388
 21
-0.3463
 31
0.0000
  0
LINE
  8
29
 10
-14.1388
 20
-0.3463
 30
0.0000
 11
-19.4728
 21
-0.3463
 31
0.0000
  0
LINE
  8
20
 10
-39.5000
 20
-26.0000
 30
0.0000
 11
39.5000
 21
-26.0000
 31
0.0000
  0
LINE
  8
20
 10
42.5000
 20
-23.0000
 30
0.0000
 11
42.5000
 21
23.0000
 31
0.0000
  0
LINE
  8
20
 10
39.5000
 20
26.0000
 30
0.0000
 11
-39.5000
 21
26.0000
 31
0.0000
  0
LINE
  8
20
 10
-42.5000
 20
23.0000
 30
0.0000
 11
-42.5000
 21
-23.0000
 31
0.0000
  0
ARC
  8
20
 10
-39.5000
 20
-23.0000
 30
0.0000
 40
3.0000
 50
180.0000
 51
270.0000
  0
ARC
  8
20
 10
-39.5000
 20
23.0000
 30
0.0000
 40
3.0000
 50
90.0000
 51
180.0000
  0
ARC
  8
20
 10
39.5000
 20
23.0000
 30
0.0000
 40
3.0000
 50
0.0000
 51
90.0000
  0
ARC
  8
20
 10
39.5000
 20
-23.0000
 30
0.0000
 40
3.0000
 50
270.0000
 51
0.0000
  0
LINE
  8
29
 10
33.1258
 20
-2.9707
 30
0.0000
 11
33.1258
 21
2.9961
 31
0.0000
  0
LINE
  8
29
 10
-37.2182
 20
-0.1619
 30
0.0000
 11
-20.9526
 21
-0.1619
 31
0.0000
  0
LINE
  8
29
 10
-20.9526
 20
-0.1619
 30
0.0000
 11
-20.9526
 21
4.8165
 31
0.0000
  0
LINE
  8
29
 10
-20.9526
 20
4.8165
 30
0.0000
 11
-37.2182
 21
4.8165
 31
0.0000
  0
LINE
  8
29
 10
-37.2182
 20
4.8165
 30
0.0000
 11
-37.2182
 21
-0.1619
 31
0.0000
  0
LINE
  8
29
 10
-35.6883
 20
1.0968
 30
0.0000
 11
-35.6883
 21
3.5627
 31
0.0000
  0
LINE
  8
29
 10
-35.6883
 20
3.5627
 30
0.0000
 11
-34.4554
 21
3.5627
 31
0.0000
  0
LINE
  8
29
 10
-34.4554
 20
3.5627
 30
0.0000
 11
-34.0444
 21
3.1517
 31
0.0000
  0
LINE
  8
29
 10
-34.0444
 20
3.1517
 30
0.0000
 11
-34.0444
 21
2.7407
 31
0.0000
  0
LINE
  8
29
 10
-34.0444
 20
2.7407
 30
0.0000
 11
-34.4554
 21
2.3297
 31
0.0000
  0
LINE
  8
29
 10
-34.4554
 20
2.3297
 30
0.0000
 11
-34.0444
 21
1.9187
 31
0.0000
  0
LINE
  8
29
 10
-34.0444
 20
1.9187
 30
0.0000
 11
-34.0444
 21
1.5077
 31
0.0000
  0
LINE
  8
29
 10
-34.0444
 20
1.5077
 30
0.0000
 11
-34.4554
 21
1.0968
 31
0.0000
  0
LINE
  8
29
 10
-34.4554
 20
1.0968
 30
0.0000
 11
-35.6883
 21
1.0968
 31
0.0000
  0
LINE
  8
29
 10
-35.6883
 20
2.3297
 30
0.0000
 11
-34.4554
 21
2.3297
 31
0.0000
  0
LINE
  8
29
 10
-33.1157
 20
1.0968
 30
0.0000
 11
-33.1157
 21
3.5627
 31
0.0000
  0
LINE
  8
29
 10
-33.1157
 20
3.5627
 30
0.0000
 11
-31.8828
 21
3.5627
 31
0.0000
  0
LINE
  8
29
 10
-31.8828
 20
3.5627
 30
0.0000
 11
-31.4718
 21
3.1517
 31
0.0000
  0
LINE
  8
29
 10
-31.4718
 20
3.1517
 30
0.0000
 11
-31.4718
 21
2.7407
 31
0.0000
  0
LINE
  8
29
 10
-31.4718
 20
2.7407
 30
0.0000
 11
-31.8828
 21
2.3297
 31
0.0000
  0
LINE
  8
29
 10
-31.8828
 20
2.3297
 30
0.0000
 11
-31.4718
 21
1.9187
 31
0.0000
  0
LINE
  8
29
 10
-31.4718
 20
1.9187
 30
0.0000
 11
-31.4718
 21
1.5077
 31
0.0000
  0
LINE
  8
29
 10
-31.4718
 20
1.5077
 30
0.0000
 11
-31.8828
 21
1.0968
 31
0.0000
  0
LINE
  8
29
 10
-31.8828
 20
1.0968
 30
0.0000
 11
-33.1157
 21
1.0968
 31
0.0000
  0
LINE
  8
29
 10
-33.1157
 20
2.3297
 30
0.0000
 11
-31.8828
 21
2.3297
 31
0.0000
  0
LINE
  8
29
 10
-30.5431
 20
1.0968
 30
0.0000
 11
-29.7212
 21
1.0968
 31
0.0000
  0
LINE
  8
29
 10
-30.1322
 20
1.0968
 30
0.0000
 11
-30.1322
 21
3.5627
 31
0.0000
  0
LINE
  8
29
 10
-30.5431
 20
3.5627
 30
0.0000
 11
-29.7212
 21
3.5627
 31
0.0000
  0
LINE
  8
29
 10
-28.8280
 20
2.3297
 30
0.0000
 11
-27.1841
 21
2.3297
 31
0.0000
  0
LINE
  8
29
 10
-24.6115
 20
3.5627
 30
0.0000
 11
-25.4335
 21
3.1517
 31
0.0000
  0
LINE
  8
29
 10
-25.4335
 20
3.1517
 30
0.0000
 11
-26.2554
 21
2.3297
 31
0.0000
  0
LINE
  8
29
 10
-26.2554
 20
2.3297
 30
0.0000
 11
-26.2554
 21
1.5077
 31
0.0000
  0
LINE
  8
29
 10
-26.2554
 20
1.5077
 30
0.0000
 11
-25.8445
 21
1.0968
 31
0.0000
  0
LINE
  8
29
 10
-25.8445
 20
1.0968
 30
0.0000
 11
-25.0225
 21
1.0968
 31
0.0000
  0
LINE
  8
29
 10
-25.0225
 20
1.0968
 30
0.0000
 11
-24.6115
 21
1.5077
 31
0.0000
  0
LINE
  8
29
 10
-24.6115
 20
1.5077
 30
0.0000
 11
-24.6115
 21
1.9187
 31
0.0000
  0
LINE
  8
29
 10
-24.6115
 20
1.9187
 30
0.0000
 11
-25.0225
 21
2.3297
 31
0.0000
  0
LINE
  8
29
 10
-25.0225
 20
2.3297
 30
0.0000
 11
-26.2554
 21
2.3297
 31
0.0000
  0
LINE
  8
29
 10
-22.4499
 20
1.0968
 30
0.0000
 11
-22.4499
 21
3.5627
 31
0.0000
  0
LINE
  8
29
 10
-22.4499
 20
3.5627
 30
0.0000
 11
-23.6828
 21
2.3297
 31
0.0000
  0
LINE
  8
29
 10
-23.6828
 20
2.3297
 30
0.0000
 11
-22.0389
 21
2.3297
 31
0.0000
  0
LINE
  8
29
 10
31.3397
 20
3.1119
 30
0.0000
 11
31.1914
 21
2.9636
 31
0.0000
  0
LINE
  8
29
 10
31.1914
 20
2.9636
 30
0.0000
 11
31.1914
 21
2.6670
 31
0.0000
  0
LINE
  8
29
 10
31.1914
 20
2.6670
 30
0.0000
 11
31.3397
 21
2.5188
 31
0.0000
  0
LINE
  8
29
 10
31.3397
 20
2.5188
 30
0.0000
 11
31.9329
 21
2.5188
 31
0.0000
  0
LINE
  8
29
 10
31.9329
 20
2.5188
 30
0.0000
 11
32.0811
 21
2.6670
 31
0.0000
  0
LINE
  8
29
 10
32.0811
 20
2.6670
 30
0.0000
 11
32.0811
 21
2.9636
 31
0.0000
  0
LINE
  8
29
 10
32.0811
 20
2.9636
 30
0.0000
 11
31.9329
 21
3.1119
 31
0.0000
  0
LINE
  8
29
 10
31.9329
 20
3.1119
 30
0.0000
 11
31.6363
 21
3.1119
 31
0.0000
  0
LINE
  8
29
 10
31.6363
 20
3.1119
 30
0.0000
 11
31.6363
 21
2.8153
 31
0.0000
  0
LINE
  8
29
 10
32.0811
 20
3.4543
 30
0.0000
 11
31.1914
 21
3.4543
 31
0.0000
  0
LINE
  8
29
 10
31.1914
 20
3.4543
 30
0.0000
 11
32.0811
 21
4.0474
 31
0.0000
  0
LINE
  8
29
 10
32.0811
 20
4.0474
 30
0.0000
 11
31.1914
 21
4.0474
 31
0.0000
  0
LINE
  8
29
 10
31.1914
 20
4.3898
 30
0.0000
 11
32.0811
 21
4.3898
 31
0.0000
  0
LINE
  8
29
 10
32.0811
 20
4.3898
 30
0.0000
 11
32.0811
 21
4.8346
 31
0.0000
  0
LINE
  8
29
 10
32.0811
 20
4.8346
 30
0.0000
 11
31.9329
 21
4.9829
 31
0.0000
  0
LINE
  8
29
 10
31.9329
 20
4.9829
 30
0.0000
 11
31.3397
 21
4.9829
 31
0.0000
  0
LINE
  8
29
 10
31.3397
 20
4.9829
 30
0.0000
 11
31.1914
 21
4.8346
 31
0.0000
  0
LINE
  8
29
 10
31.1914
 20
4.8346
 30
0.0000
 11
31.1914
 21
4.3898
 31
0.0000
  0
LINE
  8
29
 10
29.5059
 20
2.4888
 30
0.0000
 11
29.5059
 21
3.0819
 31
0.0000
  0
LINE
  8
29
 10
29.2093
 20
2.7853
 30
0.0000
 11
29.8025
 21
2.7853
 31
0.0000
  0
LINE
  8
29
 10
29.0610
 20
4.0174
 30
0.0000
 11
29.0610
 21
3.4243
 31
0.0000
  0
LINE
  8
29
 10
29.0610
 20
3.4243
 30
0.0000
 11
29.5059
 21
3.4243
 31
0.0000
  0
LINE
  8
29
 10
29.5059
 20
3.4243
 30
0.0000
 11
29.3576
 21
3.7208
 31
0.0000
  0
LINE
  8
29
 10
29.3576
 20
3.7208
 30
0.0000
 11
29.3576
 21
3.8691
 31
0.0000
  0
LINE
  8
29
 10
29.3576
 20
3.8691
 30
0.0000
 11
29.5059
 21
4.0174
 31
0.0000
  0
LINE
  8
29
 10
29.5059
 20
4.0174
 30
0.0000
 11
29.8025
 21
4.0174
 31
0.0000
  0
LINE
  8
29
 10
29.8025
 20
4.0174
 30
0.0000
 11
29.9507
 21
3.8691
 31
0.0000
  0
LINE
  8
29
 10
29.9507
 20
3.8691
 30
0.0000
 11
29.9507
 21
3.5725
 31
0.0000
  0
LINE
  8
29
 10
29.9507
 20
3.5725
 30
0.0000
 11
29.8025
 21
3.4243
 31
0.0000
  0
LINE
  8
29
 10
29.0610
 20
4.3598
 30
0.0000
 11
29.6542
 21
4.3598
 31
0.0000
  0
LINE
  8
29
 10
29.6542
 20
4.3598
 30
0.0000
 11
29.9507
 21
4.6563
 31
0.0000
  0
LINE
  8
29
 10
29.9507
 20
4.6563
 30
0.0000
 11
29.6542
 21
4.9529
 31
0.0000
  0
LINE
  8
29
 10
29.6542
 20
4.9529
 30
0.0000
 11
29.0610
 21
4.9529
 31
0.0000
  0
LINE
  8
29
 10
31.2114
 20
-4.1720
 30
0.0000
 11
32.1011
 21
-4.1720
 31
0.0000
  0
LINE
  8
29
 10
32.1011
 20
-4.1720
 30
0.0000
 11
32.1011
 21
-3.7272
 31
0.0000
  0
LINE
  8
29
 10
32.1011
 20
-3.7272
 30
0.0000
 11
31.9529
 21
-3.5789
 31
0.0000
  0
LINE
  8
29
 10
31.9529
 20
-3.5789
 30
0.0000
 11
31.3597
 21
-3.5789
 31
0.0000
  0
LINE
  8
29
 10
31.3597
 20
-3.5789
 30
0.0000
 11
31.2114
 21
-3.7272
 31
0.0000
  0
LINE
  8
29
 10
31.2114
 20
-3.7272
 30
0.0000
 11
31.2114
 21
-4.1720
 31
0.0000
  0
LINE
  8
29
 10
31.6563
 20
-3.2365
 30
0.0000
 11
31.6563
 21
-2.6434
 31
0.0000
  0
LINE
  8
29
 10
31.3597
 20
-2.9400
 30
0.0000
 11
31.9529
 21
-2.9400
 31
0.0000
  0
LINE
  8
29
 10
29.1726
 20
-4.1720
 30
0.0000
 11
30.0623
 21
-4.1720
 31
0.0000
  0
LINE
  8
29
 10
30.0623
 20
-4.1720
 30
0.0000
 11
30.0623
 21
-3.7272
 31
0.0000
  0
LINE
  8
29
 10
30.0623
 20
-3.7272
 30
0.0000
 11
29.9141
 21
-3.5789
 31
0.0000
  0
LINE
  8
29
 10
29.9141
 20
-3.5789
 30
0.0000
 11
29.3209
 21
-3.5789
 31
0.0000
  0
LINE
  8
29
 10
29.3209
 20
-3.5789
 30
0.0000
 11
29.1726
 21
-3.7272
 31
0.0000
  0
LINE
  8
29
 10
29.1726
 20
-3.7272
 30
0.0000
 11
29.1726
 21
-4.1720
 31
0.0000
  0
LINE
  8
29
 10
29.6175
 20
-3.2365
 30
0.0000
 11
29.6175
 21
-2.6434
 31
0.0000
  0
LINE
  8
29
 10
34.4791
 20
0.9116
 30
0.0000
 11
34.4791
 21
1.5047
 31
0.0000
  0
LINE
  8
29
 10
34.1825
 20
1.2081
 30
0.0000
 11
34.7757
 21
1.2081
 31
0.0000
  0
LINE
  8
29
 10
34.0342
 20
2.4402
 30
0.0000
 11
34.0342
 21
1.8471
 31
0.0000
  0
LINE
  8
29
 10
34.0342
 20
1.8471
 30
0.0000
 11
34.4791
 21
1.8471
 31
0.0000
  0
LINE
  8
29
 10
34.4791
 20
1.8471
 30
0.0000
 11
34.3308
 21
2.1436
 31
0.0000
  0
LINE
  8
29
 10
34.3308
 20
2.1436
 30
0.0000
 11
34.3308
 21
2.2919
 31
0.0000
  0
LINE
  8
29
 10
34.3308
 20
2.2919
 30
0.0000
 11
34.4791
 21
2.4402
 31
0.0000
  0
LINE
  8
29
 10
34.4791
 20
2.4402
 30
0.0000
 11
34.7757
 21
2.4402
 31
0.0000
  0
LINE
  8
29
 10
34.7757
 20
2.4402
 30
0.0000
 11
34.9239
 21
2.2919
 31
0.0000
  0
LINE
  8
29
 10
34.9239
 20
2.2919
 30
0.0000
 11
34.9239
 21
1.9953
 31
0.0000
  0
LINE
  8
29
 10
34.9239
 20
1.9953
 30
0.0000
 11
34.7757
 21
1.8471
 31
0.0000
  0
LINE
  8
29
 10
34.0342
 20
2.7826
 30
0.0000
 11
34.6274
 21
2.7826
 31
0.0000
  0
LINE
  8
29
 10
34.6274
 20
2.7826
 30
0.0000
 11
34.9239
 21
3.0791
 31
0.0000
  0
LINE
  8
29
 10
34.9239
 20
3.0791
 30
0.0000
 11
34.6274
 21
3.3757
 31
0.0000
  0
LINE
  8
29
 10
34.6274
 20
3.3757
 30
0.0000
 11
34.0342
 21
3.3757
 31
0.0000
  0
LINE
  8
29
 10
38.1997
 20
1.5047
 30
0.0000
 11
38.0514
 21
1.3564
 31
0.0000
  0
LINE
  8
29
 10
38.0514
 20
1.3564
 30
0.0000
 11
38.0514
 21
1.0598
 31
0.0000
  0
LINE
  8
29
 10
38.0514
 20
1.0598
 30
0.0000
 11
38.1997
 21
0.9116
 31
0.0000
  0
LINE
  8
29
 10
38.1997
 20
0.9116
 30
0.0000
 11
38.7929
 21
0.9116
 31
0.0000
  0
LINE
  8
29
 10
38.7929
 20
0.9116
 30
0.0000
 11
38.9411
 21
1.0598
 31
0.0000
  0
LINE
  8
29
 10
38.9411
 20
1.0598
 30
0.0000
 11
38.9411
 21
1.3564
 31
0.0000
  0
LINE
  8
29
 10
38.9411
 20
1.3564
 30
0.0000
 11
38.7929
 21
1.5047
 31
0.0000
  0
LINE
  8
29
 10
38.7929
 20
1.5047
 30
0.0000
 11
38.4963
 21
1.5047
 31
0.0000
  0
LINE
  8
29
 10
38.4963
 20
1.5047
 30
0.0000
 11
38.4963
 21
1.2081
 31
0.0000
  0
LINE
  8
29
 10
38.9411
 20
1.8471
 30
0.0000
 11
38.0514
 21
1.8471
 31
0.0000
  0
LINE
  8
29
 10
38.0514
 20
1.8471
 30
0.0000
 11
38.9411
 21
2.4402
 31
0.0000
  0
LINE
  8
29
 10
38.9411
 20
2.4402
 30
0.0000
 11
38.0514
 21
2.4402
 31
0.0000
  0
LINE
  8
29
 10
38.0514
 20
2.7826
 30
0.0000
 11
38.9411
 21
2.7826
 31
0.0000
  0
LINE
  8
29
 10
38.9411
 20
2.7826
 30
0.0000
 11
38.9411
 21
3.2274
 31
0.0000
  0
LINE
  8
29
 10
38.9411
 20
3.2274
 30
0.0000
 11
38.7929
 21
3.3757
 31
0.0000
  0
LINE
  8
29
 10
38.7929
 20
3.3757
 30
0.0000
 11
38.1997
 21
3.3757
 31
0.0000
  0
LINE
  8
29
 10
38.1997
 20
3.3757
 30
0.0000
 11
38.0514
 21
3.2274
 31
0.0000
  0
LINE
  8
29
 10
38.0514
 20
3.2274
 30
0.0000
 11
38.0514
 21
2.7826
 31
0.0000
  0
LINE
  8
29
 10
38.0514
 20
-2.4008
 30
0.0000
 11
38.9411
 21
-2.4008
 31
0.0000
  0
LINE
  8
29
 10
38.9411
 20
-2.4008
 30
0.0000
 11
38.9411
 21
-1.9560
 31
0.0000
  0
LINE
  8
29
 10
38.9411
 20
-1.9560
 30
0.0000
 11
38.7929
 21
-1.8077
 31
0.0000
  0
LINE
  8
29
 10
38.7929
 20
-1.8077
 30
0.0000
 11
38.1997
 21
-1.8077
 31
0.0000
  0
LINE
  8
29
 10
38.1997
 20
-1.8077
 30
0.0000
 11
38.0514
 21
-1.9560
 31
0.0000
  0
LINE
  8
29
 10
38.0514
 20
-1.9560
 30
0.0000
 11
38.0514
 21
-2.4008
 31
0.0000
  0
LINE
  8
29
 10
38.4963
 20
-1.4653
 30
0.0000
 11
38.4963
 21
-0.8722
 31
0.0000
  0
LINE
  8
29
 10
38.1997
 20
-1.1688
 30
0.0000
 11
38.7929
 21
-1.1688
 31
0.0000
  0
LINE
  8
29
 10
34.0342
 20
-2.3508
 30
0.0000
 11
34.9239
 21
-2.3508
 31
0.0000
  0
LINE
  8
29
 10
34.9239
 20
-2.3508
 30
0.0000
 11
34.9239
 21
-1.9060
 31
0.0000
  0
LINE
  8
29
 10
34.9239
 20
-1.9060
 30
0.0000
 11
34.7757
 21
-1.7577
 31
0.0000
  0
LINE
  8
29
 10
34.7757
 20
-1.7577
 30
0.0000
 11
34.1825
 21
-1.7577
 31
0.0000
  0
LINE
  8
29
 10
34.1825
 20
-1.7577
 30
0.0000
 11
34.0342
 21
-1.9060
 31
0.0000
  0
LINE
  8
29
 10
34.0342
 20
-1.9060
 30
0.0000
 11
34.0342
 21
-2.3508
 31
0.0000
  0
LINE
  8
29
 10
34.4791
 20
-1.4153
 30
0.0000
 11
34.4791
 21
-0.8222
 31
0.0000
  0
LINE
  8
29
 10
36.4527
 20
0.9116
 30
0.0000
 11
35.5630
 21
0.9116
 31
0.0000
  0
LINE
  8
29
 10
35.5630
 20
0.9116
 30
0.0000
 11
35.5630
 21
1.3564
 31
0.0000
  0
LINE
  8
29
 10
35.5630
 20
1.3564
 30
0.0000
 11
35.7113
 21
1.5047
 31
0.0000
  0
LINE
  8
29
 10
35.7113
 20
1.5047
 30
0.0000
 11
36.0079
 21
1.5047
 31
0.0000
  0
LINE
  8
29
 10
36.0079
 20
1.5047
 30
0.0000
 11
36.1562
 21
1.3564
 31
0.0000
  0
LINE
  8
29
 10
36.1562
 20
1.3564
 30
0.0000
 11
36.1562
 21
0.9116
 31
0.0000
  0
LINE
  8
29
 10
36.1562
 20
1.2081
 30
0.0000
 11
36.4527
 21
1.5047
 31
0.0000
  0
LINE
  8
29
 10
35.5630
 20
2.4402
 30
0.0000
 11
35.5630
 21
1.8471
 31
0.0000
  0
LINE
  8
29
 10
35.5630
 20
1.8471
 30
0.0000
 11
36.4527
 21
1.8471
 31
0.0000
  0
LINE
  8
29
 10
36.4527
 20
1.8471
 30
0.0000
 11
36.4527
 21
2.4402
 31
0.0000
  0
LINE
  8
29
 10
36.0079
 20
1.8471
 30
0.0000
 11
36.0079
 21
2.1436
 31
0.0000
  0
LINE
  8
29
 10
35.5630
 20
2.7826
 30
0.0000
 11
36.4527
 21
2.7826
 31
0.0000
  0
LINE
  8
29
 10
36.4527
 20
2.7826
 30
0.0000
 11
36.4527
 21
3.2274
 31
0.0000
  0
LINE
  8
29
 10
36.4527
 20
3.2274
 30
0.0000
 11
36.3045
 21
3.3757
 31
0.0000
  0
LINE
  8
29
 10
36.3045
 20
3.3757
 30
0.0000
 11
35.7113
 21
3.3757
 31
0.0000
  0
LINE
  8
29
 10
35.7113
 20
3.3757
 30
0.0000
 11
35.5630
 21
3.2274
 31
0.0000
  0
LINE
  8
29
 10
35.5630
 20
3.2274
 30
0.0000
 11
35.5630
 21
2.7826
 31
0.0000
  0
LINE
  8
29
 10
40.4699
 20
0.9116
 30
0.0000
 11
39.5802
 21
0.9116
 31
0.0000
  0
LINE
  8
29
 10
39.5802
 20
0.9116
 30
0.0000
 11
39.5802
 21
1.3564
 31
0.0000
  0
LINE
  8
29
 10
39.5802
 20
1.3564
 30
0.0000
 11
39.7285
 21
1.5047
 31
0.0000
  0
LINE
  8
29
 10
39.7285
 20
1.5047
 30
0.0000
 11
39.8768
 21
1.5047
 31
0.0000
  0
LINE
  8
29
 10
39.8768
 20
1.5047
 30
0.0000
 11
40.0251
 21
1.3564
 31
0.0000
  0
LINE
  8
29
 10
40.0251
 20
1.3564
 30
0.0000
 11
40.1734
 21
1.5047
 31
0.0000
  0
LINE
  8
29
 10
40.1734
 20
1.5047
 30
0.0000
 11
40.3217
 21
1.5047
 31
0.0000
  0
LINE
  8
29
 10
40.3217
 20
1.5047
 30
0.0000
 11
40.4699
 21
1.3564
 31
0.0000
  0
LINE
  8
29
 10
40.4699
 20
1.3564
 30
0.0000
 11
40.4699
 21
0.9116
 31
0.0000
  0
LINE
  8
29
 10
40.0251
 20
0.9116
 30
0.0000
 11
40.0251
 21
1.3564
 31
0.0000
  0
LINE
  8
29
 10
39.5802
 20
1.8471
 30
0.0000
 11
40.4699
 21
1.8471
 31
0.0000
  0
LINE
  8
29
 10
40.4699
 20
1.8471
 30
0.0000
 11
40.4699
 21
2.4402
 31
0.0000
  0
LINE
  8
29
 10
39.5802
 20
2.7826
 30
0.0000
 11
40.4699
 21
2.7826
 31
0.0000
  0
LINE
  8
29
 10
40.1734
 20
2.7826
 30
0.0000
 11
39.5802
 21
3.3757
 31
0.0000
  0
LINE
  8
29
 10
40.0251
 20
2.9308
 30
0.0000
 11
40.4699
 21
3.3757
 31
0.0000
  0
LINE
  8
29
 10
39.7285
 20
-2.3673
 30
0.0000
 11
39.5802
 21
-2.5156
 31
0.0000
  0
LINE
  8
29
 10
39.5802
 20
-2.5156
 30
0.0000
 11
39.5802
 21
-2.8122
 31
0.0000
  0
LINE
  8
29
 10
39.5802
 20
-2.8122
 30
0.0000
 11
39.7285
 21
-2.9604
 31
0.0000
  0
LINE
  8
29
 10
39.7285
 20
-2.9604
 30
0.0000
 11
40.3217
 21
-2.9604
 31
0.0000
  0
LINE
  8
29
 10
40.3217
 20
-2.9604
 30
0.0000
 11
40.4699
 21
-2.8122
 31
0.0000
  0
LINE
  8
29
 10
40.4699
 20
-2.8122
 30
0.0000
 11
40.4699
 21
-2.5156
 31
0.0000
  0
LINE
  8
29
 10
40.4699
 20
-2.5156
 30
0.0000
 11
40.3217
 21
-2.3673
 31
0.0000
  0
LINE
  8
29
 10
40.3217
 20
-2.3673
 30
0.0000
 11
40.0251
 21
-2.3673
 31
0.0000
  0
LINE
  8
29
 10
40.0251
 20
-2.3673
 30
0.0000
 11
40.0251
 21
-2.6639
 31
0.0000
  0
LINE
  8
29
 10
40.4699
 20
-2.0249
 30
0.0000
 11
39.5802
 21
-2.0249
 31
0.0000
  0
LINE
  8
29
 10
39.5802
 20
-2.0249
 30
0.0000
 11
39.5802
 21
-1.5801
 31
0.0000
  0
LINE
  8
29
 10
39.5802
 20
-1.5801
 30
0.0000
 11
39.7285
 21
-1.4318
 31
0.0000
  0
LINE
  8
29
 10
39.7285
 20
-1.4318
 30
0.0000
 11
40.0251
 21
-1.4318
 31
0.0000
  0
LINE
  8
29
 10
40.0251
 20
-1.4318
 30
0.0000
 11
40.1734
 21
-1.5801
 31
0.0000
  0
LINE
  8
29
 10
40.1734
 20
-1.5801
 30
0.0000
 11
40.1734
 21
-2.0249
 31
0.0000
  0
LINE
  8
29
 10
40.1734
 20
-1.7284
 30
0.0000
 11
40.4699
 21
-1.4318
 31
0.0000
  0
LINE
  8
29
 10
40.4699
 20
-1.0894
 30
0.0000
 11
39.5802
 21
-1.0894
 31
0.0000
  0
LINE
  8
29
 10
39.5802
 20
-1.0894
 30
0.0000
 11
40.4699
 21
-0.4963
 31
0.0000
  0
LINE
  8
29
 10
40.4699
 20
-0.4963
 30
0.0000
 11
39.5802
 21
-0.4963
 31
0.0000
  0
LINE
  8
29
 10
35.5630
 20
-2.9104
 30
0.0000
 11
36.4527
 21
-2.9104
 31
0.0000
  0
LINE
  8
29
 10
36.4527
 20
-2.9104
 30
0.0000
 11
36.1562
 21
-2.6139
 31
0.0000
  0
LINE
  8
29
 10
36.1562
 20
-2.6139
 30
0.0000
 11
36.4527
 21
-2.3173
 31
0.0000
  0
LINE
  8
29
 10
36.4527
 20
-2.3173
 30
0.0000
 11
35.5630
 21
-2.3173
 31
0.0000
  0
LINE
  8
29
 10
36.4527
 20
-1.9749
 30
0.0000
 11
35.5630
 21
-1.9749
 31
0.0000
  0
LINE
  8
29
 10
36.0079
 20
-1.9749
 30
0.0000
 11
36.0079
 21
-1.3818
 31
0.0000
  0
LINE
  8
29
 10
35.5630
 20
-1.3818
 30
0.0000
 11
36.4527
 21
-1.3818
 31
0.0000
  0
LINE
  8
29
 10
36.4527
 20
-0.7429
 30
0.0000
 11
35.5630
 21
-0.7429
 31
0.0000
  0
LINE
  8
29
 10
35.5630
 20
-1.0394
 30
0.0000
 11
35.5630
 21
-0.4463
 31
0.0000
  0
LINE
  8
29
 10
-36.8492
 20
-4.7046
 30
0.0000
 11
-37.2869
 21
-4.2669
 31
0.0000
  0
LINE
  8
29
 10
-37.2869
 20
-4.2669
 30
0.0000
 11
-37.2869
 21
-3.8291
 31
0.0000
  0
LINE
  8
29
 10
-37.2869
 20
-3.8291
 30
0.0000
 11
-36.8492
 21
-3.3913
 31
0.0000
  0
LINE
  8
29
 10
-35.4968
 20
-3.6102
 30
0.0000
 11
-35.7157
 21
-3.3913
 31
0.0000
  0
LINE
  8
29
 10
-35.7157
 20
-3.3913
 30
0.0000
 11
-36.1535
 21
-3.3913
 31
0.0000
  0
LINE
  8
29
 10
-36.1535
 20
-3.3913
 30
0.0000
 11
-36.3723
 21
-3.6102
 31
0.0000
  0
LINE
  8
29
 10
-36.3723
 20
-3.6102
 30
0.0000
 11
-36.3723
 21
-4.4858
 31
0.0000
  0
LINE
  8
29
 10
-36.3723
 20
-4.4858
 30
0.0000
 11
-36.1535
 21
-4.7046
 31
0.0000
  0
LINE
  8
29
 10
-36.1535
 20
-4.7046
 30
0.0000
 11
-35.7157
 21
-4.7046
 31
0.0000
  0
LINE
  8
29
 10
-35.7157
 20
-4.7046
 30
0.0000
 11
-35.4968
 21
-4.4858
 31
0.0000
  0
LINE
  8
29
 10
-35.0004
 20
-4.7046
 30
0.0000
 11
-34.5627
 21
-4.2669
 31
0.0000
  0
LINE
  8
29
 10
-34.5627
 20
-4.2669
 30
0.0000
 11
-34.5627
 21
-3.8291
 31
0.0000
  0
LINE
  8
29
 10
-34.5627
 20
-3.8291
 30
0.0000
 11
-35.0004
 21
-3.3913
 31
0.0000
  0
LINE
  8
29
 10
-33.2103
 20
-4.7046
 30
0.0000
 11
-34.0858
 21
-4.7046
 31
0.0000
  0
LINE
  8
29
 10
-34.0858
 20
-4.7046
 30
0.0000
 11
-33.2103
 21
-3.8291
 31
0.0000
  0
LINE
  8
29
 10
-33.2103
 20
-3.8291
 30
0.0000
 11
-33.2103
 21
-3.6102
 31
0.0000
  0
LINE
  8
29
 10
-33.2103
 20
-3.6102
 30
0.0000
 11
-33.4292
 21
-3.3913
 31
0.0000
  0
LINE
  8
29
 10
-33.4292
 20
-3.3913
 30
0.0000
 11
-33.8670
 21
-3.3913
 31
0.0000
  0
LINE
  8
29
 10
-33.8670
 20
-3.3913
 30
0.0000
 11
-34.0858
 21
-3.6102
 31
0.0000
  0
LINE
  8
29
 10
-32.7139
 20
-4.4858
 30
0.0000
 11
-32.7139
 21
-3.6102
 31
0.0000
  0
LINE
  8
29
 10
-32.7139
 20
-3.6102
 30
0.0000
 11
-32.4951
 21
-3.3913
 31
0.0000
  0
LINE
  8
29
 10
-32.4951
 20
-3.3913
 30
0.0000
 11
-32.0573
 21
-3.3913
 31
0.0000
  0
LINE
  8
29
 10
-32.0573
 20
-3.3913
 30
0.0000
 11
-31.8384
 21
-3.6102
 31
0.0000
  0
LINE
  8
29
 10
-31.8384
 20
-3.6102
 30
0.0000
 11
-31.8384
 21
-4.4858
 31
0.0000
  0
LINE
  8
29
 10
-31.8384
 20
-4.4858
 30
0.0000
 11
-32.0573
 21
-4.7046
 31
0.0000
  0
LINE
  8
29
 10
-32.0573
 20
-4.7046
 30
0.0000
 11
-32.4951
 21
-4.7046
 31
0.0000
  0
LINE
  8
29
 10
-32.4951
 20
-4.7046
 30
0.0000
 11
-32.7139
 21
-4.4858
 31
0.0000
  0
LINE
  8
29
 10
-32.7139
 20
-4.4858
 30
0.0000
 11
-31.8384
 21
-3.6102
 31
0.0000
  0
LINE
  8
29
 10
-31.3420
 20
-3.8291
 30
0.0000
 11
-30.9043
 21
-3.3913
 31
0.0000
  0
LINE
  8
29
 10
-30.9043
 20
-3.3913
 30
0.0000
 11
-30.9043
 21
-4.7046
 31
0.0000
  0
LINE
  8
29
 10
-31.3420
 20
-4.7046
 30
0.0000
 11
-30.4665
 21
-4.7046
 31
0.0000
  0
LINE
  8
29
 10
-29.9701
 20
-3.3913
 30
0.0000
 11
-29.0946
 21
-3.3913
 31
0.0000
  0
LINE
  8
29
 10
-29.0946
 20
-3.3913
 30
0.0000
 11
-29.0946
 21
-3.6102
 31
0.0000
  0
LINE
  8
29
 10
-29.0946
 20
-3.6102
 30
0.0000
 11
-29.9701
 21
-4.4858
 31
0.0000
  0
LINE
  8
29
 10
-29.9701
 20
-4.4858
 30
0.0000
 11
-29.9701
 21
-4.7046
 31
0.0000
  0
LINE
  8
29
 10
-27.2263
 20
-3.3913
 30
0.0000
 11
-27.2263
 21
-4.7046
 31
0.0000
  0
LINE
  8
29
 10
-27.2263
 20
-4.7046
 30
0.0000
 11
-26.3508
 21
-4.7046
 31
0.0000
  0
LINE
  8
29
 10
-25.1978
 20
-4.7046
 30
0.0000
 11
-25.6356
 21
-4.7046
 31
0.0000
  0
LINE
  8
29
 10
-25.6356
 20
-4.7046
 30
0.0000
 11
-25.8544
 21
-4.4858
 31
0.0000
  0
LINE
  8
29
 10
-25.8544
 20
-4.4858
 30
0.0000
 11
-25.8544
 21
-4.0480
 31
0.0000
  0
LINE
  8
29
 10
-25.8544
 20
-4.0480
 30
0.0000
 11
-25.6356
 21
-3.8291
 31
0.0000
  0
LINE
  8
29
 10
-25.6356
 20
-3.8291
 30
0.0000
 11
-25.1978
 21
-3.8291
 31
0.0000
  0
LINE
  8
29
 10
-25.1978
 20
-3.8291
 30
0.0000
 11
-24.9789
 21
-4.0480
 31
0.0000
  0
LINE
  8
29
 10
-24.9789
 20
-4.0480
 30
0.0000
 11
-24.9789
 21
-4.2669
 31
0.0000
  0
LINE
  8
29
 10
-24.9789
 20
-4.2669
 30
0.0000
 11
-25.8544
 21
-4.2669
 31
0.0000
  0
LINE
  8
29
 10
-24.2637
 20
-4.7046
 30
0.0000
 11
-23.8259
 21
-4.7046
 31
0.0000
  0
LINE
  8
29
 10
-23.8259
 20
-4.7046
 30
0.0000
 11
-23.6070
 21
-4.4858
 31
0.0000
  0
LINE
  8
29
 10
-23.6070
 20
-4.4858
 30
0.0000
 11
-23.6070
 21
-4.0480
 31
0.0000
  0
LINE
  8
29
 10
-23.6070
 20
-4.0480
 30
0.0000
 11
-23.8259
 21
-3.8291
 31
0.0000
  0
LINE
  8
29
 10
-23.8259
 20
-3.8291
 30
0.0000
 11
-24.2637
 21
-3.8291
 31
0.0000
  0
LINE
  8
29
 10
-24.2637
 20
-3.8291
 30
0.0000
 11
-24.4825
 21
-4.0480
 31
0.0000
  0
LINE
  8
29
 10
-24.4825
 20
-4.0480
 30
0.0000
 11
-24.4825
 21
-4.4858
 31
0.0000
  0
LINE
  8
29
 10
-24.4825
 20
-4.4858
 30
0.0000
 11
-24.2637
 21
-4.7046
 31
0.0000
  0
LINE
  8
29
 10
-21.7387
 20
-4.7046
 30
0.0000
 11
-21.7387
 21
-3.3913
 31
0.0000
  0
LINE
  8
29
 10
-21.7387
 20
-3.3913
 30
0.0000
 11
-21.0821
 21
-3.3913
 31
0.0000
  0
LINE
  8
29
 10
-21.0821
 20
-3.3913
 30
0.0000
 11
-20.8632
 21
-3.6102
 31
0.0000
  0
LINE
  8
29
 10
-20.8632
 20
-3.6102
 30
0.0000
 11
-20.8632
 21
-3.8291
 31
0.0000
  0
LINE
  8
29
 10
-20.8632
 20
-3.8291
 30
0.0000
 11
-21.0821
 21
-4.0480
 31
0.0000
  0
LINE
  8
29
 10
-21.0821
 20
-4.0480
 30
0.0000
 11
-20.8632
 21
-4.2669
 31
0.0000
  0
LINE
  8
29
 10
-20.8632
 20
-4.2669
 30
0.0000
 11
-20.8632
 21
-4.4858
 31
0.0000
  0
LINE
  8
29
 10
-20.8632
 20
-4.4858
 30
0.0000
 11
-21.0821
 21
-4.7046
 31
0.0000
  0
LINE
  8
29
 10
-21.0821
 20
-4.7046
 30
0.0000
 11
-21.7387
 21
-4.7046
 31
0.0000
  0
LINE
  8
29
 10
-21.7387
 20
-4.0480
 30
0.0000
 11
-21.0821
 21
-4.0480
 31
0.0000
  0
LINE
  8
29
 10
-20.1480
 20
-4.7046
 30
0.0000
 11
-19.7102
 21
-4.7046
 31
0.0000
  0
LINE
  8
29
 10
-19.7102
 20
-4.7046
 30
0.0000
 11
-19.4913
 21
-4.4858
 31
0.0000
  0
LINE
  8
29
 10
-19.4913
 20
-4.4858
 30
0.0000
 11
-19.4913
 21
-4.0480
 31
0.0000
  0
LINE
  8
29
 10
-19.4913
 20
-4.0480
 30
0.0000
 11
-19.7102
 21
-3.8291
 31
0.0000
  0
LINE
  8
29
 10
-19.7102
 20
-3.8291
 30
0.0000
 11
-20.1480
 21
-3.8291
 31
0.0000
  0
LINE
  8
29
 10
-20.1480
 20
-3.8291
 30
0.0000
 11
-20.3668
 21
-4.0480
 31
0.0000
  0
LINE
  8
29
 10
-20.3668
 20
-4.0480
 30
0.0000
 11
-20.3668
 21
-4.4858
 31
0.0000
  0
LINE
  8
29
 10
-20.3668
 20
-4.4858
 30
0.0000
 11
-20.1480
 21
-4.7046
 31
0.0000
  0
LINE
  8
29
 10
-18.1194
 20
-3.3913
 30
0.0000
 11
-18.1194
 21
-4.7046
 31
0.0000
  0
LINE
  8
29
 10
-18.1194
 20
-4.7046
 30
0.0000
 11
-18.7761
 21
-4.7046
 31
0.0000
  0
LINE
  8
29
 10
-18.7761
 20
-4.7046
 30
0.0000
 11
-18.9949
 21
-4.4858
 31
0.0000
  0
LINE
  8
29
 10
-18.9949
 20
-4.4858
 30
0.0000
 11
-18.9949
 21
-4.0480
 31
0.0000
  0
LINE
  8
29
 10
-18.9949
 20
-4.0480
 30
0.0000
 11
-18.7761
 21
-3.8291
 31
0.0000
  0
LINE
  8
29
 10
-18.7761
 20
-3.8291
 30
0.0000
 11
-18.1194
 21
-3.8291
 31
0.0000
  0
LINE
  8
29
 10
-17.6230
 20
-4.7046
 30
0.0000
 11
-17.6230
 21
-3.8291
 31
0.0000
  0
LINE
  8
29
 10
-17.6230
 20
-3.8291
 30
0.0000
 11
-16.9664
 21
-3.8291
 31
0.0000
  0
LINE
  8
29
 10
-16.9664
 20
-3.8291
 30
0.0000
 11
-16.7475
 21
-4.0480
 31
0.0000
  0
LINE
  8
29
 10
-16.7475
 20
-4.0480
 30
0.0000
 11
-16.7475
 21
-4.7046
 31
0.0000
  0
LINE
  8
29
 10
-16.0323
 20
-3.8291
 30
0.0000
 11
-15.5945
 21
-3.8291
 31
0.0000
  0
LINE
  8
29
 10
-15.5945
 20
-3.8291
 30
0.0000
 11
-15.3756
 21
-4.0480
 31
0.0000
  0
LINE
  8
29
 10
-15.3756
 20
-4.0480
 30
0.0000
 11
-15.3756
 21
-4.7046
 31
0.0000
  0
LINE
  8
29
 10
-15.3756
 20
-4.7046
 30
0.0000
 11
-16.0323
 21
-4.7046
 31
0.0000
  0
LINE
  8
29
 10
-16.0323
 20
-4.7046
 30
0.0000
 11
-16.2511
 21
-4.4858
 31
0.0000
  0
LINE
  8
29
 10
-16.2511
 20
-4.4858
 30
0.0000
 11
-16.0323
 21
-4.2669
 31
0.0000
  0
LINE
  8
29
 10
-16.0323
 20
-4.2669
 30
0.0000
 11
-15.3756
 21
-4.2669
 31
0.0000
  0
LINE
  8
29
 10
-14.8792
 20
-4.7046
 30
0.0000
 11
-14.8792
 21
-3.8291
 31
0.0000
  0
LINE
  8
29
 10
-14.8792
 20
-4.2669
 30
0.0000
 11
-14.4415
 21
-3.8291
 31
0.0000
  0
LINE
  8
29
 10
-14.4415
 20
-3.8291
 30
0.0000
 11
-14.2226
 21
-3.8291
 31
0.0000
  0
LINE
  8
29
 10
-37.2742
 20
-1.4866
 30
0.0000
 11
-37.2742
 21
-2.2106
 31
0.0000
  0
LINE
  8
29
 10
-37.2742
 20
-2.2106
 30
0.0000
 11
-37.0329
 21
-2.4519
 31
0.0000
  0
LINE
  8
29
 10
-37.0329
 20
-2.4519
 30
0.0000
 11
-36.7916
 21
-2.2106
 31
0.0000
  0
LINE
  8
29
 10
-36.7916
 20
-2.2106
 30
0.0000
 11
-36.5502
 21
-2.4519
 31
0.0000
  0
LINE
  8
29
 10
-36.5502
 20
-2.4519
 30
0.0000
 11
-36.3089
 21
-2.2106
 31
0.0000
  0
LINE
  8
29
 10
-36.3089
 20
-2.2106
 30
0.0000
 11
-36.3089
 21
-1.4866
 31
0.0000
  0
LINE
  8
29
 10
-35.7550
 20
-1.4866
 30
0.0000
 11
-35.7550
 21
-2.2106
 31
0.0000
  0
LINE
  8
29
 10
-35.7550
 20
-2.2106
 30
0.0000
 11
-35.5137
 21
-2.4519
 31
0.0000
  0
LINE
  8
29
 10
-35.5137
 20
-2.4519
 30
0.0000
 11
-35.2724
 21
-2.2106
 31
0.0000
  0
LINE
  8
29
 10
-35.2724
 20
-2.2106
 30
0.0000
 11
-35.0310
 21
-2.4519
 31
0.0000
  0
LINE
  8
29
 10
-35.0310
 20
-2.4519
 30
0.0000
 11
-34.7897
 21
-2.2106
 31
0.0000
  0
LINE
  8
29
 10
-34.7897
 20
-2.2106
 30
0.0000
 11
-34.7897
 21
-1.4866
 31
0.0000
  0
LINE
  8
29
 10
-34.2358
 20
-1.4866
 30
0.0000
 11
-34.2358
 21
-2.2106
 31
0.0000
  0
LINE
  8
29
 10
-34.2358
 20
-2.2106
 30
0.0000
 11
-33.9945
 21
-2.4519
 31
0.0000
  0
LINE
  8
29
 10
-33.9945
 20
-2.4519
 30
0.0000
 11
-33.7532
 21
-2.2106
 31
0.0000
  0
LINE
  8
29
 10
-33.7532
 20
-2.2106
 30
0.0000
 11
-33.5118
 21
-2.4519
 31
0.0000
  0
LINE
  8
29
 10
-33.5118
 20
-2.4519
 30
0.0000
 11
-33.2705
 21
-2.2106
 31
0.0000
  0
LINE
  8
29
 10
-33.2705
 20
-2.2106
 30
0.0000
 11
-33.2705
 21
-1.4866
 31
0.0000
  0
LINE
  8
29
 10
-32.7166
 20
-2.4519
 30
0.0000
 11
-32.7166
 21
-2.2106
 31
0.0000
  0
LINE
  8
29
 10
-32.7166
 20
-2.2106
 30
0.0000
 11
-32.4753
 21
-2.2106
 31
0.0000
  0
LINE
  8
29
 10
-32.4753
 20
-2.2106
 30
0.0000
 11
-32.4753
 21
-2.4519
 31
0.0000
  0
LINE
  8
29
 10
-32.4753
 20
-2.4519
 30
0.0000
 11
-32.7166
 21
-2.4519
 31
0.0000
  0
LINE
  8
29
 10
-31.9570
 20
-1.0039
 30
0.0000
 11
-31.7157
 21
-1.0039
 31
0.0000
  0
LINE
  8
29
 10
-31.7157
 20
-1.0039
 30
0.0000
 11
-31.7157
 21
-2.4519
 31
0.0000
  0
LINE
  8
29
 10
-31.9570
 20
-2.4519
 30
0.0000
 11
-31.4744
 21
-2.4519
 31
0.0000
  0
LINE
  8
29
 10
-30.2202
 20
-2.4519
 30
0.0000
 11
-30.7029
 21
-2.4519
 31
0.0000
  0
LINE
  8
29
 10
-30.7029
 20
-2.4519
 30
0.0000
 11
-30.9442
 21
-2.2106
 31
0.0000
  0
LINE
  8
29
 10
-30.9442
 20
-2.2106
 30
0.0000
 11
-30.9442
 21
-1.7279
 31
0.0000
  0
LINE
  8
29
 10
-30.9442
 20
-1.7279
 30
0.0000
 11
-30.7029
 21
-1.4866
 31
0.0000
  0
LINE
  8
29
 10
-30.7029
 20
-1.4866
 30
0.0000
 11
-30.2202
 21
-1.4866
 31
0.0000
  0
LINE
  8
29
 10
-30.2202
 20
-1.4866
 30
0.0000
 11
-29.9789
 21
-1.7279
 31
0.0000
  0
LINE
  8
29
 10
-29.9789
 20
-1.7279
 30
0.0000
 11
-29.9789
 21
-1.9693
 31
0.0000
  0
LINE
  8
29
 10
-29.9789
 20
-1.9693
 30
0.0000
 11
-30.9442
 21
-1.9693
 31
0.0000
  0
LINE
  8
29
 10
-29.1837
 20
-2.4519
 30
0.0000
 11
-28.7010
 21
-2.4519
 31
0.0000
  0
LINE
  8
29
 10
-28.7010
 20
-2.4519
 30
0.0000
 11
-28.4597
 21
-2.2106
 31
0.0000
  0
LINE
  8
29
 10
-28.4597
 20
-2.2106
 30
0.0000
 11
-28.4597
 21
-1.7279
 31
0.0000
  0
LINE
  8
29
 10
-28.4597
 20
-1.7279
 30
0.0000
 11
-28.7010
 21
-1.4866
 31
0.0000
  0
LINE
  8
29
 10
-28.7010
 20
-1.4866
 30
0.0000
 11
-29.1837
 21
-1.4866
 31
0.0000
  0
LINE
  8
29
 10
-29.1837
 20
-1.4866
 30
0.0000
 11
-29.4250
 21
-1.7279
 31
0.0000
  0
LINE
  8
29
 10
-29.4250
 20
-1.7279
 30
0.0000
 11
-29.4250
 21
-2.2106
 31
0.0000
  0
LINE
  8
29
 10
-29.4250
 20
-2.2106
 30
0.0000
 11
-29.1837
 21
-2.4519
 31
0.0000
  0
LINE
  8
29
 10
-27.9058
 20
-1.0039
 30
0.0000
 11
-27.9058
 21
-2.4519
 31
0.0000
  0
LINE
  8
29
 10
-27.9058
 20
-2.4519
 30
0.0000
 11
-27.1818
 21
-2.4519
 31
0.0000
  0
LINE
  8
29
 10
-27.1818
 20
-2.4519
 30
0.0000
 11
-26.9405
 21
-2.2106
 31
0.0000
  0
LINE
  8
29
 10
-26.9405
 20
-2.2106
 30
0.0000
 11
-26.9405
 21
-1.7279
 31
0.0000
  0
LINE
  8
29
 10
-26.9405
 20
-1.7279
 30
0.0000
 11
-27.1818
 21
-1.4866
 31
0.0000
  0
LINE
  8
29
 10
-27.1818
 20
-1.4866
 30
0.0000
 11
-27.9058
 21
-1.4866
 31
0.0000
  0
LINE
  8
29
 10
-26.1453
 20
-2.4519
 30
0.0000
 11
-25.6626
 21
-2.4519
 31
0.0000
  0
LINE
  8
29
 10
-25.6626
 20
-2.4519
 30
0.0000
 11
-25.4213
 21
-2.2106
 31
0.0000
  0
LINE
  8
29
 10
-25.4213
 20
-2.2106
 30
0.0000
 11
-25.4213
 21
-1.7279
 31
0.0000
  0
LINE
  8
29
 10
-25.4213
 20
-1.7279
 30
0.0000
 11
-25.6626
 21
-1.4866
 31
0.0000
  0
LINE
  8
29
 10
-25.6626
 20
-1.4866
 30
0.0000
 11
-26.1453
 21
-1.4866
 31
0.0000
  0
LINE
  8
29
 10
-26.1453
 20
-1.4866
 30
0.0000
 11
-26.3866
 21
-1.7279
 31
0.0000
  0
LINE
  8
29
 10
-26.3866
 20
-1.7279
 30
0.0000
 11
-26.3866
 21
-2.2106
 31
0.0000
  0
LINE
  8
29
 10
-26.3866
 20
-2.2106
 30
0.0000
 11
-26.1453
 21
-2.4519
 31
0.0000
  0
LINE
  8
29
 10
-23.9021
 20
-1.0039
 30
0.0000
 11
-23.9021
 21
-2.4519
 31
0.0000
  0
LINE
  8
29
 10
-23.9021
 20
-2.4519
 30
0.0000
 11
-24.6261
 21
-2.4519
 31
0.0000
  0
LINE
  8
29
 10
-24.6261
 20
-2.4519
 30
0.0000
 11
-24.8674
 21
-2.2106
 31
0.0000
  0
LINE
  8
29
 10
-24.8674
 20
-2.2106
 30
0.0000
 11
-24.8674
 21
-1.7279
 31
0.0000
  0
LINE
  8
29
 10
-24.8674
 20
-1.7279
 30
0.0000
 11
-24.6261
 21
-1.4866
 31
0.0000
  0
LINE
  8
29
 10
-24.6261
 20
-1.4866
 30
0.0000
 11
-23.9021
 21
-1.4866
 31
0.0000
  0
LINE
  8
29
 10
-23.3482
 20
-2.4519
 30
0.0000
 11
-23.3482
 21
-1.4866
 31
0.0000
  0
LINE
  8
29
 10
-23.3482
 20
-1.4866
 30
0.0000
 11
-22.6242
 21
-1.4866
 31
0.0000
  0
LINE
  8
29
 10
-22.6242
 20
-1.4866
 30
0.0000
 11
-22.3829
 21
-1.7279
 31
0.0000
  0
LINE
  8
29
 10
-22.3829
 20
-1.7279
 30
0.0000
 11
-22.3829
 21
-2.4519
 31
0.0000
  0
LINE
  8
29
 10
-21.5877
 20
-1.4866
 30
0.0000
 11
-21.1050
 21
-1.4866
 31
0.0000
  0
LINE
  8
29
 10
-21.1050
 20
-1.4866
 30
0.0000
 11
-20.8637
 21
-1.7279
 31
0.0000
  0
LINE
  8
29
 10
-20.8637
 20
-1.7279
 30
0.0000
 11
-20.8637
 21
-2.4519
 31
0.0000
  0
LINE
  8
29
 10
-20.8637
 20
-2.4519
 30
0.0000
 11
-21.5877
 21
-2.4519
 31
0.0000
  0
LINE
  8
29
 10
-21.5877
 20
-2.4519
 30
0.0000
 11
-21.8290
 21
-2.2106
 31
0.0000
  0
LINE
  8
29
 10
-21.8290
 20
-2.2106
 30
0.0000
 11
-21.5877
 21
-1.9693
 31
0.0000
  0
LINE
  8
29
 10
-21.5877
 20
-1.9693
 30
0.0000
 11
-20.8637
 21
-1.9693
 31
0.0000
  0
LINE
  8
29
 10
-20.3098
 20
-2.4519
 30
0.0000
 11
-20.3098
 21
-1.4866
 31
0.0000
  0
LINE
  8
29
 10
-20.3098
 20
-1.9693
 30
0.0000
 11
-19.8272
 21
-1.4866
 31
0.0000
  0
LINE
  8
29
 10
-19.8272
 20
-1.4866
 30
0.0000
 11
-19.5858
 21
-1.4866
 31
0.0000
  0
LINE
  8
29
 10
-19.0438
 20
-2.4519
 30
0.0000
 11
-19.0438
 21
-2.2106
 31
0.0000
  0
LINE
  8
29
 10
-19.0438
 20
-2.2106
 30
0.0000
 11
-18.8025
 21
-2.2106
 31
0.0000
  0
LINE
  8
29
 10
-18.8025
 20
-2.2106
 30
0.0000
 11
-18.8025
 21
-2.4519
 31
0.0000
  0
LINE
  8
29
 10
-18.8025
 20
-2.4519
 30
0.0000
 11
-19.0438
 21
-2.4519
 31
0.0000
  0
LINE
  8
29
 10
-17.3189
 20
-1.4866
 30
0.0000
 11
-18.0429
 21
-1.4866
 31
0.0000
  0
LINE
  8
29
 10
-18.0429
 20
-1.4866
 30
0.0000
 11
-18.2842
 21
-1.7279
 31
0.0000
  0
LINE
  8
29
 10
-18.2842
 20
-1.7279
 30
0.0000
 11
-18.2842
 21
-2.2106
 31
0.0000
  0
LINE
  8
29
 10
-18.2842
 20
-2.2106
 30
0.0000
 11
-18.0429
 21
-2.4519
 31
0.0000
  0
LINE
  8
29
 10
-18.0429
 20
-2.4519
 30
0.0000
 11
-17.3189
 21
-2.4519
 31
0.0000
  0
LINE
  8
29
 10
-16.5237
 20
-2.4519
 30
0.0000
 11
-16.0410
 21
-2.4519
 31
0.0000
  0
LINE
  8
29
 10
-16.0410
 20
-2.4519
 30
0.0000
 11
-15.7997
 21
-2.2106
 31
0.0000
  0
LINE
  8
29
 10
-15.7997
 20
-2.2106
 30
0.0000
 11
-15.7997
 21
-1.7279
 31
0.0000
  0
LINE
  8
29
 10
-15.7997
 20
-1.7279
 30
0.0000
 11
-16.0410
 21
-1.4866
 31
0.0000
  0
LINE
  8
29
 10
-16.0410
 20
-1.4866
 30
0.0000
 11
-16.5237
 21
-1.4866
 31
0.0000
  0
LINE
  8
29
 10
-16.5237
 20
-1.4866
 30
0.0000
 11
-16.7650
 21
-1.7279
 31
0.0000
  0
LINE
  8
29
 10
-16.7650
 20
-1.7279
 30
0.0000
 11
-16.7650
 21
-2.2106
 31
0.0000
  0
LINE
  8
29
 10
-16.7650
 20
-2.2106
 30
0.0000
 11
-16.5237
 21
-2.4519
 31
0.0000
  0
LINE
  8
29
 10
-15.2458
 20
-2.4519
 30
0.0000
 11
-15.2458
 21
-1.4866
 31
0.0000
  0
LINE
  8
29
 10
-15.2458
 20
-1.4866
 30
0.0000
 11
-15.0045
 21
-1.4866
 31
0.0000
  0
LINE
  8
29
 10
-15.0045
 20
-1.4866
 30
0.0000
 11
-14.7632
 21
-1.7279
 31
0.0000
  0
LINE
  8
29
 10
-14.7632
 20
-1.7279
 30
0.0000
 11
-14.7632
 21
-2.4519
 31
0.0000
  0
LINE
  8
29
 10
-14.7632
 20
-1.7279
 30
0.0000
 11
-14.5218
 21
-1.4866
 31
0.0000
  0
LINE
  8
29
 10
-14.5218
 20
-1.4866
 30
0.0000
 11
-14.2805
 21
-1.7279
 31
0.0000
  0
LINE
  8
29
 10
-14.2805
 20
-1.7279
 30
0.0000
 11
-14.2805
 21
-2.4519
 31
0.0000
  0
LINE
  8
29
 10
-2.0674
 20
0.6877
 30
0.0000
 11
-2.0674
 21
1.5774
 31
0.0000
  0
LINE
  8
29
 10
-2.0674
 20
1.5774
 30
0.0000
 11
-1.6226
 21
1.5774
 31
0.0000
  0
LINE
  8
29
 10
-1.6226
 20
1.5774
 30
0.0000
 11
-1.4743
 21
1.4291
 31
0.0000
  0
LINE
  8
29
 10
-1.4743
 20
1.4291
 30
0.0000
 11
-1.4743
 21
1.1325
 31
0.0000
  0
LINE
  8
29
 10
-1.4743
 20
1.1325
 30
0.0000
 11
-1.6226
 21
0.9842
 31
0.0000
  0
LINE
  8
29
 10
-1.6226
 20
0.9842
 30
0.0000
 11
-2.0674
 21
0.9842
 31
0.0000
  0
LINE
  8
29
 10
-1.7709
 20
0.9842
 30
0.0000
 11
-1.4743
 21
0.6877
 31
0.0000
  0
LINE
  8
29
 10
-0.6871
 20
0.6877
 30
0.0000
 11
-0.9837
 21
0.6877
 31
0.0000
  0
LINE
  8
29
 10
-0.9837
 20
0.6877
 30
0.0000
 11
-1.1319
 21
0.8359
 31
0.0000
  0
LINE
  8
29
 10
-1.1319
 20
0.8359
 30
0.0000
 11
-1.1319
 21
1.1325
 31
0.0000
  0
LINE
  8
29
 10
-1.1319
 20
1.1325
 30
0.0000
 11
-0.9837
 21
1.2808
 31
0.0000
  0
LINE
  8
29
 10
-0.9837
 20
1.2808
 30
0.0000
 11
-0.6871
 21
1.2808
 31
0.0000
  0
LINE
  8
29
 10
-0.6871
 20
1.2808
 30
0.0000
 11
-0.5388
 21
1.1325
 31
0.0000
  0
LINE
  8
29
 10
-0.5388
 20
1.1325
 30
0.0000
 11
-0.5388
 21
0.9842
 31
0.0000
  0
LINE
  8
29
 10
-0.5388
 20
0.9842
 30
0.0000
 11
-1.1319
 21
0.9842
 31
0.0000
  0
LINE
  8
29
 10
-0.1964
 20
1.2808
 30
0.0000
 11
0.1001
 21
0.6877
 31
0.0000
  0
LINE
  8
29
 10
0.1001
 20
0.6877
 30
0.0000
 11
0.3967
 21
1.2808
 31
0.0000
  0
LINE
  8
29
 10
0.7391
 20
0.6877
 30
0.0000
 11
0.7391
 21
0.8359
 31
0.0000
  0
LINE
  8
29
 10
0.7391
 20
0.8359
 30
0.0000
 11
0.8873
 21
0.8359
 31
0.0000
  0
LINE
  8
29
 10
0.8873
 20
0.8359
 30
0.0000
 11
0.8873
 21
0.6877
 31
0.0000
  0
LINE
  8
29
 10
0.8873
 20
0.6877
 30
0.0000
 11
0.7391
 21
0.6877
 31
0.0000
  0
LINE
  8
29
 10
1.2068
 20
0.6877
 30
0.0000
 11
1.2068
 21
1.5774
 31
0.0000
  0
LINE
  8
29
 10
1.2068
 20
1.5774
 30
0.0000
 11
1.6516
 21
1.5774
 31
0.0000
  0
LINE
  8
29
 10
1.6516
 20
1.5774
 30
0.0000
 11
1.7999
 21
1.4291
 31
0.0000
  0
LINE
  8
29
 10
1.7999
 20
1.4291
 30
0.0000
 11
1.7999
 21
1.2808
 31
0.0000
  0
LINE
  8
29
 10
1.7999
 20
1.2808
 30
0.0000
 11
1.6516
 21
1.1325
 31
0.0000
  0
LINE
  8
29
 10
1.6516
 20
1.1325
 30
0.0000
 11
1.7999
 21
0.9842
 31
0.0000
  0
LINE
  8
29
 10
1.7999
 20
0.9842
 30
0.0000
 11
1.7999
 21
0.8359
 31
0.0000
  0
LINE
  8
29
 10
1.7999
 20
0.8359
 30
0.0000
 11
1.6516
 21
0.6877
 31
0.0000
  0
LINE
  8
29
 10
1.6516
 20
0.6877
 30
0.0000
 11
1.2068
 21
0.6877
 31
0.0000
  0
LINE
  8
29
 10
1.2068
 20
1.1325
 30
0.0000
 11
1.6516
 21
1.1325
 31
0.0000
  0
LINE
  8
29
 10
-33.6239
 20
20.0889
 30
0.0000
 11
-34.9472
 21
20.0889
 31
0.0000
  0
LINE
  8
29
 10
-34.9472
 20
20.0889
 30
0.0000
 11
-34.9472
 21
20.7505
 31
0.0000
  0
LINE
  8
29
 10
-34.9472
 20
20.7505
 30
0.0000
 11
-34.7266
 21
20.9711
 31
0.0000
  0
LINE
  8
29
 10
-34.7266
 20
20.9711
 30
0.0000
 11
-34.5061
 21
20.9711
 31
0.0000
  0
LINE
  8
29
 10
-34.5061
 20
20.9711
 30
0.0000
 11
-34.2855
 21
20.7505
 31
0.0000
  0
LINE
  8
29
 10
-34.2855
 20
20.7505
 30
0.0000
 11
-34.0650
 21
20.9711
 31
0.0000
  0
LINE
  8
29
 10
-34.0650
 20
20.9711
 30
0.0000
 11
-33.8444
 21
20.9711
 31
0.0000
  0
LINE
  8
29
 10
-33.8444
 20
20.9711
 30
0.0000
 11
-33.6239
 21
20.7505
 31
0.0000
  0
LINE
  8
29
 10
-33.6239
 20
20.7505
 30
0.0000
 11
-33.6239
 21
20.0889
 31
0.0000
  0
LINE
  8
29
 10
-34.2855
 20
20.0889
 30
0.0000
 11
-34.2855
 21
20.7505
 31
0.0000
  0
LINE
  8
29
 10
-34.2855
 20
21.4700
 30
0.0000
 11
-34.2855
 21
22.3522
 31
0.0000
  0
LINE
  8
29
 10
-34.7266
 20
22.8511
 30
0.0000
 11
-34.9472
 21
23.0716
 31
0.0000
  0
LINE
  8
29
 10
-34.9472
 20
23.0716
 30
0.0000
 11
-34.9472
 21
23.5127
 31
0.0000
  0
LINE
  8
29
 10
-34.9472
 20
23.5127
 30
0.0000
 11
-34.7266
 21
23.7333
 31
0.0000
  0
LINE
  8
29
 10
-34.7266
 20
23.7333
 30
0.0000
 11
-34.5061
 21
23.7333
 31
0.0000
  0
LINE
  8
29
 10
-34.5061
 20
23.7333
 30
0.0000
 11
-34.2855
 21
23.5127
 31
0.0000
  0
LINE
  8
29
 10
-34.2855
 20
23.5127
 30
0.0000
 11
-34.2855
 21
23.2922
 31
0.0000
  0
LINE
  8
29
 10
-34.2855
 20
23.5127
 30
0.0000
 11
-34.0650
 21
23.7333
 31
0.0000
  0
LINE
  8
29
 10
-34.0650
 20
23.7333
 30
0.0000
 11
-33.8444
 21
23.7333
 31
0.0000
  0
LINE
  8
29
 10
-33.8444
 20
23.7333
 30
0.0000
 11
-33.6239
 21
23.5127
 31
0.0000
  0
LINE
  8
29
 10
-33.6239
 20
23.5127
 30
0.0000
 11
-33.6239
 21
23.0716
 31
0.0000
  0
LINE
  8
29
 10
-33.6239
 20
23.0716
 30
0.0000
 11
-33.8444
 21
22.8511
 31
0.0000
  0
LINE
  8
29
 10
-31.0839
 20
20.0889
 30
0.0000
 11
-32.4072
 21
20.0889
 31
0.0000
  0
LINE
  8
29
 10
-32.4072
 20
20.0889
 30
0.0000
 11
-32.4072
 21
20.7505
 31
0.0000
  0
LINE
  8
29
 10
-32.4072
 20
20.7505
 30
0.0000
 11
-32.1866
 21
20.9711
 31
0.0000
  0
LINE
  8
29
 10
-32.1866
 20
20.9711
 30
0.0000
 11
-31.9661
 21
20.9711
 31
0.0000
  0
LINE
  8
29
 10
-31.9661
 20
20.9711
 30
0.0000
 11
-31.7455
 21
20.7505
 31
0.0000
  0
LINE
  8
29
 10
-31.7455
 20
20.7505
 30
0.0000
 11
-31.5250
 21
20.9711
 31
0.0000
  0
LINE
  8
29
 10
-31.5250
 20
20.9711
 30
0.0000
 11
-31.3044
 21
20.9711
 31
0.0000
  0
LINE
  8
29
 10
-31.3044
 20
20.9711
 30
0.0000
 11
-31.0839
 21
20.7505
 31
0.0000
  0
LINE
  8
29
 10
-31.0839
 20
20.7505
 30
0.0000
 11
-31.0839
 21
20.0889
 31
0.0000
  0
LINE
  8
29
 10
-31.7455
 20
20.0889
 30
0.0000
 11
-31.7455
 21
20.7505
 31
0.0000
  0
LINE
  8
29
 10
-31.7455
 20
21.4700
 30
0.0000
 11
-31.7455
 21
22.3522
 31
0.0000
  0
LINE
  8
29
 10
-31.0839
 20
23.5127
 30
0.0000
 11
-32.4072
 21
23.5127
 31
0.0000
  0
LINE
  8
29
 10
-32.4072
 20
23.5127
 30
0.0000
 11
-31.7455
 21
22.8511
 31
0.0000
  0
LINE
  8
29
 10
-31.7455
 20
22.8511
 30
0.0000
 11
-31.7455
 21
23.7333
 31
0.0000
  0
LINE
  8
29
 10
-28.5439
 20
20.0889
 30
0.0000
 11
-29.8672
 21
20.0889
 31
0.0000
  0
LINE
  8
29
 10
-29.8672
 20
20.0889
 30
0.0000
 11
-29.8672
 21
20.7505
 31
0.0000
  0
LINE
  8
29
 10
-29.8672
 20
20.7505
 30
0.0000
 11
-29.6466
 21
20.9711
 31
0.0000
  0
LINE
  8
29
 10
-29.6466
 20
20.9711
 30
0.0000
 11
-29.4261
 21
20.9711
 31
0.0000
  0
LINE
  8
29
 10
-29.4261
 20
20.9711
 30
0.0000
 11
-29.2055
 21
20.7505
 31
0.0000
  0
LINE
  8
29
 10
-29.2055
 20
20.7505
 30
0.0000
 11
-28.9850
 21
20.9711
 31
0.0000
  0
LINE
  8
29
 10
-28.9850
 20
20.9711
 30
0.0000
 11
-28.7644
 21
20.9711
 31
0.0000
  0
LINE
  8
29
 10
-28.7644
 20
20.9711
 30
0.0000
 11
-28.5439
 21
20.7505
 31
0.0000
  0
LINE
  8
29
 10
-28.5439
 20
20.7505
 30
0.0000
 11
-28.5439
 21
20.0889
 31
0.0000
  0
LINE
  8
29
 10
-29.2055
 20
20.0889
 30
0.0000
 11
-29.2055
 21
20.7505
 31
0.0000
  0
LINE
  8
29
 10
-29.2055
 20
21.4700
 30
0.0000
 11
-29.2055
 21
22.3522
 31
0.0000
  0
LINE
  8
29
 10
-29.8672
 20
23.7333
 30
0.0000
 11
-29.8672
 21
22.8511
 31
0.0000
  0
LINE
  8
29
 10
-29.8672
 20
22.8511
 30
0.0000
 11
-29.2055
 21
22.8511
 31
0.0000
  0
LINE
  8
29
 10
-29.2055
 20
22.8511
 30
0.0000
 11
-29.4261
 21
23.2922
 31
0.0000
  0
LINE
  8
29
 10
-29.4261
 20
23.2922
 30
0.0000
 11
-29.4261
 21
23.5127
 31
0.0000
  0
LINE
  8
29
 10
-29.4261
 20
23.5127
 30
0.0000
 11
-29.2055
 21
23.7333
 31
0.0000
  0
LINE
  8
29
 10
-29.2055
 20
23.7333
 30
0.0000
 11
-28.7644
 21
23.7333
 31
0.0000
  0
LINE
  8
29
 10
-28.7644
 20
23.7333
 30
0.0000
 11
-28.5439
 21
23.5127
 31
0.0000
  0
LINE
  8
29
 10
-28.5439
 20
23.5127
 30
0.0000
 11
-28.5439
 21
23.0716
 31
0.0000
  0
LINE
  8
29
 10
-28.5439
 20
23.0716
 30
0.0000
 11
-28.7644
 21
22.8511
 31
0.0000
  0
LINE
  8
29
 10
-26.0039
 20
20.0889
 30
0.0000
 11
-27.3272
 21
20.0889
 31
0.0000
  0
LINE
  8
29
 10
-27.3272
 20
20.0889
 30
0.0000
 11
-27.3272
 21
20.7505
 31
0.0000
  0
LINE
  8
29
 10
-27.3272
 20
20.7505
 30
0.0000
 11
-27.1066
 21
20.9711
 31
0.0000
  0
LINE
  8
29
 10
-27.1066
 20
20.9711
 30
0.0000
 11
-26.8861
 21
20.9711
 31
0.0000
  0
LINE
  8
29
 10
-26.8861
 20
20.9711
 30
0.0000
 11
-26.6655
 21
20.7505
 31
0.0000
  0
LINE
  8
29
 10
-26.6655
 20
20.7505
 30
0.0000
 11
-26.4450
 21
20.9711
 31
0.0000
  0
LINE
  8
29
 10
-26.4450
 20
20.9711
 30
0.0000
 11
-26.2244
 21
20.9711
 31
0.0000
  0
LINE
  8
29
 10
-26.2244
 20
20.9711
 30
0.0000
 11
-26.0039
 21
20.7505
 31
0.0000
  0
LINE
  8
29
 10
-26.0039
 20
20.7505
 30
0.0000
 11
-26.0039
 21
20.0889
 31
0.0000
  0
LINE
  8
29
 10
-26.6655
 20
20.0889
 30
0.0000
 11
-26.6655
 21
20.7505
 31
0.0000
  0
LINE
  8
29
 10
-26.6655
 20
21.4700
 30
0.0000
 11
-26.6655
 21
22.3522
 31
0.0000
  0
LINE
  8
29
 10
-27.3272
 20
23.7333
 30
0.0000
 11
-27.1066
 21
23.2922
 31
0.0000
  0
LINE
  8
29
 10
-27.1066
 20
23.2922
 30
0.0000
 11
-26.6655
 21
22.8511
 31
0.0000
  0
LINE
  8
29
 10
-26.6655
 20
22.8511
 30
0.0000
 11
-26.2244
 21
22.8511
 31
0.0000
  0
LINE
  8
29
 10
-26.2244
 20
22.8511
 30
0.0000
 11
-26.0039
 21
23.0716
 31
0.0000
  0
LINE
  8
29
 10
-26.0039
 20
23.0716
 30
0.0000
 11
-26.0039
 21
23.5127
 31
0.0000
  0
LINE
  8
29
 10
-26.0039
 20
23.5127
 30
0.0000
 11
-26.2244
 21
23.7333
 31
0.0000
  0
LINE
  8
29
 10
-26.2244
 20
23.7333
 30
0.0000
 11
-26.4450
 21
23.7333
 31
0.0000
  0
LINE
  8
29
 10
-26.4450
 20
23.7333
 30
0.0000
 11
-26.6655
 21
23.5127
 31
0.0000
  0
LINE
  8
29
 10
-26.6655
 20
23.5127
 30
0.0000
 11
-26.6655
 21
22.8511
 31
0.0000
  0
LINE
  8
29
 10
-23.4639
 20
20.0889
 30
0.0000
 11
-24.7872
 21
20.0889
 31
0.0000
  0
LINE
  8
29
 10
-24.7872
 20
20.0889
 30
0.0000
 11
-24.7872
 21
20.7505
 31
0.0000
  0
LINE
  8
29
 10
-24.7872
 20
20.7505
 30
0.0000
 11
-24.5666
 21
20.9711
 31
0.0000
  0
LINE
  8
29
 10
-24.5666
 20
20.9711
 30
0.0000
 11
-24.3461
 21
20.9711
 31
0.0000
  0
LINE
  8
29
 10
-24.3461
 20
20.9711
 30
0.0000
 11
-24.1255
 21
20.7505
 31
0.0000
  0
LINE
  8
29
 10
-24.1255
 20
20.7505
 30
0.0000
 11
-23.9050
 21
20.9711
 31
0.0000
  0
LINE
  8
29
 10
-23.9050
 20
20.9711
 30
0.0000
 11
-23.6844
 21
20.9711
 31
0.0000
  0
LINE
  8
29
 10
-23.6844
 20
20.9711
 30
0.0000
 11
-23.4639
 21
20.7505
 31
0.0000
  0
LINE
  8
29
 10
-23.4639
 20
20.7505
 30
0.0000
 11
-23.4639
 21
20.0889
 31
0.0000
  0
LINE
  8
29
 10
-24.1255
 20
20.0889
 30
0.0000
 11
-24.1255
 21
20.7505
 31
0.0000
  0
LINE
  8
29
 10
-24.1255
 20
21.4700
 30
0.0000
 11
-24.1255
 21
22.3522
 31
0.0000
  0
LINE
  8
29
 10
-24.7872
 20
22.8511
 30
0.0000
 11
-24.7872
 21
23.7333
 31
0.0000
  0
LINE
  8
29
 10
-24.7872
 20
23.7333
 30
0.0000
 11
-24.5666
 21
23.7333
 31
0.0000
  0
LINE
  8
29
 10
-24.5666
 20
23.7333
 30
0.0000
 11
-23.6844
 21
22.8511
 31
0.0000
  0
LINE
  8
29
 10
-23.6844
 20
22.8511
 30
0.0000
 11
-23.4639
 21
22.8511
 31
0.0000
  0
LINE
  8
29
 10
-20.9239
 20
20.0889
 30
0.0000
 11
-22.2472
 21
20.0889
 31
0.0000
  0
LINE
  8
29
 10
-22.2472
 20
20.0889
 30
0.0000
 11
-22.2472
 21
20.7505
 31
0.0000
  0
LINE
  8
29
 10
-22.2472
 20
20.7505
 30
0.0000
 11
-22.0266
 21
20.9711
 31
0.0000
  0
LINE
  8
29
 10
-22.0266
 20
20.9711
 30
0.0000
 11
-21.8061
 21
20.9711
 31
0.0000
  0
LINE
  8
29
 10
-21.8061
 20
20.9711
 30
0.0000
 11
-21.5855
 21
20.7505
 31
0.0000
  0
LINE
  8
29
 10
-21.5855
 20
20.7505
 30
0.0000
 11
-21.3650
 21
20.9711
 31
0.0000
  0
LINE
  8
29
 10
-21.3650
 20
20.9711
 30
0.0000
 11
-21.1444
 21
20.9711
 31
0.0000
  0
LINE
  8
29
 10
-21.1444
 20
20.9711
 30
0.0000
 11
-20.9239
 21
20.7505
 31
0.0000
  0
LINE
  8
29
 10
-20.9239
 20
20.7505
 30
0.0000
 11
-20.9239
 21
20.0889
 31
0.0000
  0
LINE
  8
29
 10
-21.5855
 20
20.0889
 30
0.0000
 11
-21.5855
 21
20.7505
 31
0.0000
  0
LINE
  8
29
 10
-21.5855
 20
21.4700
 30
0.0000
 11
-21.5855
 21
22.3522
 31
0.0000
  0
LINE
  8
29
 10
-22.0266
 20
22.8511
 30
0.0000
 11
-22.2472
 21
23.0716
 31
0.0000
  0
LINE
  8
29
 10
-22.2472
 20
23.0716
 30
0.0000
 11
-22.2472
 21
23.5127
 31
0.0000
  0
LINE
  8
29
 10
-22.2472
 20
23.5127
 30
0.0000
 11
-22.0266
 21
23.7333
 31
0.0000
  0
LINE
  8
29
 10
-22.0266
 20
23.7333
 30
0.0000
 11
-21.8061
 21
23.7333
 31
0.0000
  0
LINE
  8
29
 10
-21.8061
 20
23.7333
 30
0.0000
 11
-21.5855
 21
23.5127
 31
0.0000
  0
LINE
  8
29
 10
-21.5855
 20
23.5127
 30
0.0000
 11
-21.3650
 21
23.7333
 31
0.0000
  0
LINE
  8
29
 10
-21.3650
 20
23.7333
 30
0.0000
 11
-21.1444
 21
23.7333
 31
0.0000
  0
LINE
  8
29
 10
-21.1444
 20
23.7333
 30
0.0000
 11
-20.9239
 21
23.5127
 31
0.0000
  0
LINE
  8
29
 10
-20.9239
 20
23.5127
 30
0.0000
 11
-20.9239
 21
23.0716
 31
0.0000
  0
LINE
  8
29
 10
-20.9239
 20
23.0716
 30
0.0000
 11
-21.1444
 21
22.8511
 31
0.0000
  0
LINE
  8
29
 10
-21.1444
 20
22.8511
 30
0.0000
 11
-21.3650
 21
22.8511
 31
0.0000
  0
LINE
  8
29
 10
-21.3650
 20
22.8511
 30
0.0000
 11
-21.5855
 21
23.0716
 31
0.0000
  0
LINE
  8
29
 10
-21.5855
 20
23.0716
 30
0.0000
 11
-21.8061
 21
22.8511
 31
0.0000
  0
LINE
  8
29
 10
-21.8061
 20
22.8511
 30
0.0000
 11
-22.0266
 21
22.8511
 31
0.0000
  0
LINE
  8
29
 10
-21.5855
 20
23.0716
 30
0.0000
 11
-21.5855
 21
23.5127
 31
0.0000
  0
LINE
  8
29
 10
-18.3839
 20
20.0889
 30
0.0000
 11
-19.7072
 21
20.0889
 31
0.0000
  0
LINE
  8
29
 10
-19.7072
 20
20.0889
 30
0.0000
 11
-19.7072
 21
20.7505
 31
0.0000
  0
LINE
  8
29
 10
-19.7072
 20
20.7505
 30
0.0000
 11
-19.4866
 21
20.9711
 31
0.0000
  0
LINE
  8
29
 10
-19.4866
 20
20.9711
 30
0.0000
 11
-19.2661
 21
20.9711
 31
0.0000
  0
LINE
  8
29
 10
-19.2661
 20
20.9711
 30
0.0000
 11
-19.0455
 21
20.7505
 31
0.0000
  0
LINE
  8
29
 10
-19.0455
 20
20.7505
 30
0.0000
 11
-18.8250
 21
20.9711
 31
0.0000
  0
LINE
  8
29
 10
-18.8250
 20
20.9711
 30
0.0000
 11
-18.6044
 21
20.9711
 31
0.0000
  0
LINE
  8
29
 10
-18.6044
 20
20.9711
 30
0.0000
 11
-18.3839
 21
20.7505
 31
0.0000
  0
LINE
  8
29
 10
-18.3839
 20
20.7505
 30
0.0000
 11
-18.3839
 21
20.0889
 31
0.0000
  0
LINE
  8
29
 10
-19.0455
 20
20.0889
 30
0.0000
 11
-19.0455
 21
20.7505
 31
0.0000
  0
LINE
  8
29
 10
-19.0455
 20
21.4700
 30
0.0000
 11
-19.0455
 21
22.3522
 31
0.0000
  0
LINE
  8
29
 10
-18.6044
 20
22.8511
 30
0.0000
 11
-18.3839
 21
23.0716
 31
0.0000
  0
LINE
  8
29
 10
-18.3839
 20
23.0716
 30
0.0000
 11
-18.3839
 21
23.5127
 31
0.0000
  0
LINE
  8
29
 10
-18.3839
 20
23.5127
 30
0.0000
 11
-18.6044
 21
23.7333
 31
0.0000
  0
LINE
  8
29
 10
-18.6044
 20
23.7333
 30
0.0000
 11
-19.4866
 21
23.7333
 31
0.0000
  0
LINE
  8
29
 10
-19.4866
 20
23.7333
 30
0.0000
 11
-19.7072
 21
23.5127
 31
0.0000
  0
LINE
  8
29
 10
-19.7072
 20
23.5127
 30
0.0000
 11
-19.7072
 21
23.0716
 31
0.0000
  0
LINE
  8
29
 10
-19.7072
 20
23.0716
 30
0.0000
 11
-19.4866
 21
22.8511
 31
0.0000
  0
LINE
  8
29
 10
-19.4866
 20
22.8511
 30
0.0000
 11
-19.2661
 21
22.8511
 31
0.0000
  0
LINE
  8
29
 10
-19.2661
 20
22.8511
 30
0.0000
 11
-19.0455
 21
23.0716
 31
0.0000
  0
LINE
  8
29
 10
-19.0455
 20
23.0716
 30
0.0000
 11
-19.0455
 21
23.7333
 31
0.0000
  0
LINE
  8
29
 10
-15.8439
 20
20.0889
 30
0.0000
 11
-17.1672
 21
20.0889
 31
0.0000
  0
LINE
  8
29
 10
-17.1672
 20
20.0889
 30
0.0000
 11
-17.1672
 21
20.7505
 31
0.0000
  0
LINE
  8
29
 10
-17.1672
 20
20.7505
 30
0.0000
 11
-16.9466
 21
20.9711
 31
0.0000
  0
LINE
  8
29
 10
-16.9466
 20
20.9711
 30
0.0000
 11
-16.7261
 21
20.9711
 31
0.0000
  0
LINE
  8
29
 10
-16.7261
 20
20.9711
 30
0.0000
 11
-16.5055
 21
20.7505
 31
0.0000
  0
LINE
  8
29
 10
-16.5055
 20
20.7505
 30
0.0000
 11
-16.2850
 21
20.9711
 31
0.0000
  0
LINE
  8
29
 10
-16.2850
 20
20.9711
 30
0.0000
 11
-16.0644
 21
20.9711
 31
0.0000
  0
LINE
  8
29
 10
-16.0644
 20
20.9711
 30
0.0000
 11
-15.8439
 21
20.7505
 31
0.0000
  0
LINE
  8
29
 10
-15.8439
 20
20.7505
 30
0.0000
 11
-15.8439
 21
20.0889
 31
0.0000
  0
LINE
  8
29
 10
-16.5055
 20
20.0889
 30
0.0000
 11
-16.5055
 21
20.7505
 31
0.0000
  0
LINE
  8
29
 10
-16.5055
 20
21.4700
 30
0.0000
 11
-16.5055
 21
22.3522
 31
0.0000
  0
LINE
  8
29
 10
-16.7261
 20
22.8511
 30
0.0000
 11
-17.1672
 21
23.2922
 31
0.0000
  0
LINE
  8
29
 10
-17.1672
 20
23.2922
 30
0.0000
 11
-15.8439
 21
23.2922
 31
0.0000
  0
LINE
  8
29
 10
-15.8439
 20
22.8511
 30
0.0000
 11
-15.8439
 21
23.7333
 31
0.0000
  0
LINE
  8
29
 10
-16.0644
 20
24.2322
 30
0.0000
 11
-16.9466
 21
24.2322
 31
0.0000
  0
LINE
  8
29
 10
-16.9466
 20
24.2322
 30
0.0000
 11
-17.1672
 21
24.4527
 31
0.0000
  0
LINE
  8
29
 10
-17.1672
 20
24.4527
 30
0.0000
 11
-17.1672
 21
24.8938
 31
0.0000
  0
LINE
  8
29
 10
-17.1672
 20
24.8938
 30
0.0000
 11
-16.9466
 21
25.1144
 31
0.0000
  0
LINE
  8
29
 10
-16.9466
 20
25.1144
 30
0.0000
 11
-16.0644
 21
25.1144
 31
0.0000
  0
LINE
  8
29
 10
-16.0644
 20
25.1144
 30
0.0000
 11
-15.8439
 21
24.8938
 31
0.0000
  0
LINE
  8
29
 10
-15.8439
 20
24.8938
 30
0.0000
 11
-15.8439
 21
24.4527
 31
0.0000
  0
LINE
  8
29
 10
-15.8439
 20
24.4527
 30
0.0000
 11
-16.0644
 21
24.2322
 31
0.0000
  0
LINE
  8
29
 10
-16.0644
 20
24.2322
 30
0.0000
 11
-16.9466
 21
25.1144
 31
0.0000
  0
LINE
  8
29
 10
-13.3039
 20
20.0889
 30
0.0000
 11
-14.6272
 21
20.0889
 31
0.0000
  0
LINE
  8
29
 10
-14.6272
 20
20.0889
 30
0.0000
 11
-14.6272
 21
20.7505
 31
0.0000
  0
LINE
  8
29
 10
-14.6272
 20
20.7505
 30
0.0000
 11
-14.4066
 21
20.9711
 31
0.0000
  0
LINE
  8
29
 10
-14.4066
 20
20.9711
 30
0.0000
 11
-14.1861
 21
20.9711
 31
0.0000
  0
LINE
  8
29
 10
-14.1861
 20
20.9711
 30
0.0000
 11
-13.9655
 21
20.7505
 31
0.0000
  0
LINE
  8
29
 10
-13.9655
 20
20.7505
 30
0.0000
 11
-13.7450
 21
20.9711
 31
0.0000
  0
LINE
  8
29
 10
-13.7450
 20
20.9711
 30
0.0000
 11
-13.5244
 21
20.9711
 31
0.0000
  0
LINE
  8
29
 10
-13.5244
 20
20.9711
 30
0.0000
 11
-13.3039
 21
20.7505
 31
0.0000
  0
LINE
  8
29
 10
-13.3039
 20
20.7505
 30
0.0000
 11
-13.3039
 21
20.0889
 31
0.0000
  0
LINE
  8
29
 10
-13.9655
 20
20.0889
 30
0.0000
 11
-13.9655
 21
20.7505
 31
0.0000
  0
LINE
  8
29
 10
-13.9655
 20
21.4700
 30
0.0000
 11
-13.9655
 21
22.3522
 31
0.0000
  0
LINE
  8
29
 10
-14.1861
 20
22.8511
 30
0.0000
 11
-14.6272
 21
23.2922
 31
0.0000
  0
LINE
  8
29
 10
-14.6272
 20
23.2922
 30
0.0000
 11
-13.3039
 21
23.2922
 31
0.0000
  0
LINE
  8
29
 10
-13.3039
 20
22.8511
 30
0.0000
 11
-13.3039
 21
23.7333
 31
0.0000
  0
LINE
  8
29
 10
-14.1861
 20
24.2322
 30
0.0000
 11
-14.6272
 21
24.6733
 31
0.0000
  0
LINE
  8
29
 10
-14.6272
 20
24.6733
 30
0.0000
 11
-13.3039
 21
24.6733
 31
0.0000
  0
LINE
  8
29
 10
-13.3039
 20
24.2322
 30
0.0000
 11
-13.3039
 21
25.1144
 31
0.0000
  0
LINE
  8
29
 10
-10.7639
 20
20.0889
 30
0.0000
 11
-12.0872
 21
20.0889
 31
0.0000
  0
LINE
  8
29
 10
-12.0872
 20
20.0889
 30
0.0000
 11
-12.0872
 21
20.7505
 31
0.0000
  0
LINE
  8
29
 10
-12.0872
 20
20.7505
 30
0.0000
 11
-11.8666
 21
20.9711
 31
0.0000
  0
LINE
  8
29
 10
-11.8666
 20
20.9711
 30
0.0000
 11
-11.6461
 21
20.9711
 31
0.0000
  0
LINE
  8
29
 10
-11.6461
 20
20.9711
 30
0.0000
 11
-11.4255
 21
20.7505
 31
0.0000
  0
LINE
  8
29
 10
-11.4255
 20
20.7505
 30
0.0000
 11
-11.2050
 21
20.9711
 31
0.0000
  0
LINE
  8
29
 10
-11.2050
 20
20.9711
 30
0.0000
 11
-10.9844
 21
20.9711
 31
0.0000
  0
LINE
  8
29
 10
-10.9844
 20
20.9711
 30
0.0000
 11
-10.7639
 21
20.7505
 31
0.0000
  0
LINE
  8
29
 10
-10.7639
 20
20.7505
 30
0.0000
 11
-10.7639
 21
20.0889
 31
0.0000
  0
LINE
  8
29
 10
-11.4255
 20
20.0889
 30
0.0000
 11
-11.4255
 21
20.7505
 31
0.0000
  0
LINE
  8
29
 10
-11.4255
 20
21.4700
 30
0.0000
 11
-11.4255
 21
22.3522
 31
0.0000
  0
LINE
  8
29
 10
-11.6461
 20
22.8511
 30
0.0000
 11
-12.0872
 21
23.2922
 31
0.0000
  0
LINE
  8
29
 10
-12.0872
 20
23.2922
 30
0.0000
 11
-10.7639
 21
23.2922
 31
0.0000
  0
LINE
  8
29
 10
-10.7639
 20
22.8511
 30
0.0000
 11
-10.7639
 21
23.7333
 31
0.0000
  0
LINE
  8
29
 10
-10.7639
 20
25.1144
 30
0.0000
 11
-10.7639
 21
24.2322
 31
0.0000
  0
LINE
  8
29
 10
-10.7639
 20
24.2322
 30
0.0000
 11
-11.6461
 21
25.1144
 31
0.0000
  0
LINE
  8
29
 10
-11.6461
 20
25.1144
 30
0.0000
 11
-11.8666
 21
25.1144
 31
0.0000
  0
LINE
  8
29
 10
-11.8666
 20
25.1144
 30
0.0000
 11
-12.0872
 21
24.8938
 31
0.0000
  0
LINE
  8
29
 10
-12.0872
 20
24.8938
 30
0.0000
 11
-12.0872
 21
24.4527
 31
0.0000
  0
LINE
  8
29
 10
-12.0872
 20
24.4527
 30
0.0000
 11
-11.8666
 21
24.2322
 31
0.0000
  0
LINE
  8
29
 10
-8.2239
 20
20.0889
 30
0.0000
 11
-9.5472
 21
20.0889
 31
0.0000
  0
LINE
  8
29
 10
-9.5472
 20
20.0889
 30
0.0000
 11
-9.5472
 21
20.7505
 31
0.0000
  0
LINE
  8
29
 10
-9.5472
 20
20.7505
 30
0.0000
 11
-9.3266
 21
20.9711
 31
0.0000
  0
LINE
  8
29
 10
-9.3266
 20
20.9711
 30
0.0000
 11
-9.1061
 21
20.9711
 31
0.0000
  0
LINE
  8
29
 10
-9.1061
 20
20.9711
 30
0.0000
 11
-8.8855
 21
20.7505
 31
0.0000
  0
LINE
  8
29
 10
-8.8855
 20
20.7505
 30
0.0000
 11
-8.6650
 21
20.9711
 31
0.0000
  0
LINE
  8
29
 10
-8.6650
 20
20.9711
 30
0.0000
 11
-8.4444
 21
20.9711
 31
0.0000
  0
LINE
  8
29
 10
-8.4444
 20
20.9711
 30
0.0000
 11
-8.2239
 21
20.7505
 31
0.0000
  0
LINE
  8
29
 10
-8.2239
 20
20.7505
 30
0.0000
 11
-8.2239
 21
20.0889
 31
0.0000
  0
LINE
  8
29
 10
-8.8855
 20
20.0889
 30
0.0000
 11
-8.8855
 21
20.7505
 31
0.0000
  0
LINE
  8
29
 10
-8.8855
 20
21.4700
 30
0.0000
 11
-8.8855
 21
22.3522
 31
0.0000
  0
LINE
  8
29
 10
-9.1061
 20
22.8511
 30
0.0000
 11
-9.5472
 21
23.2922
 31
0.0000
  0
LINE
  8
29
 10
-9.5472
 20
23.2922
 30
0.0000
 11
-8.2239
 21
23.2922
 31
0.0000
  0
LINE
  8
29
 10
-8.2239
 20
22.8511
 30
0.0000
 11
-8.2239
 21
23.7333
 31
0.0000
  0
LINE
  8
29
 10
-9.3266
 20
24.2322
 30
0.0000
 11
-9.5472
 21
24.4527
 31
0.0000
  0
LINE
  8
29
 10
-9.5472
 20
24.4527
 30
0.0000
 11
-9.5472
 21
24.8938
 31
0.0000
  0
LINE
  8
29
 10
-9.5472
 20
24.8938
 30
0.0000
 11
-9.3266
 21
25.1144
 31
0.0000
  0
LINE
  8
29
 10
-9.3266
 20
25.1144
 30
0.0000
 11
-9.1061
 21
25.1144
 31
0.0000
  0
LINE
  8
29
 10
-9.1061
 20
25.1144
 30
0.0000
 11
-8.8855
 21
24.8938
 31
0.0000
  0
LINE
  8
29
 10
-8.8855
 20
24.8938
 30
0.0000
 11
-8.8855
 21
24.6733
 31
0.0000
  0
LINE
  8
29
 10
-8.8855
 20
24.8938
 30
0.0000
 11
-8.6650
 21
25.1144
 31
0.0000
  0
LINE
  8
29
 10
-8.6650
 20
25.1144
 30
0.0000
 11
-8.4444
 21
25.1144
 31
0.0000
  0
LINE
  8
29
 10
-8.4444
 20
25.1144
 30
0.0000
 11
-8.2239
 21
24.8938
 31
0.0000
  0
LINE
  8
29
 10
-8.2239
 20
24.8938
 30
0.0000
 11
-8.2239
 21
24.4527
 31
0.0000
  0
LINE
  8
29
 10
-8.2239
 20
24.4527
 30
0.0000
 11
-8.4444
 21
24.2322
 31
0.0000
  0
LINE
  8
29
 10
-5.6839
 20
20.0889
 30
0.0000
 11
-7.0072
 21
20.0889
 31
0.0000
  0
LINE
  8
29
 10
-7.0072
 20
20.0889
 30
0.0000
 11
-7.0072
 21
20.7505
 31
0.0000
  0
LINE
  8
29
 10
-7.0072
 20
20.7505
 30
0.0000
 11
-6.7866
 21
20.9711
 31
0.0000
  0
LINE
  8
29
 10
-6.7866
 20
20.9711
 30
0.0000
 11
-6.5661
 21
20.9711
 31
0.0000
  0
LINE
  8
29
 10
-6.5661
 20
20.9711
 30
0.0000
 11
-6.3455
 21
20.7505
 31
0.0000
  0
LINE
  8
29
 10
-6.3455
 20
20.7505
 30
0.0000
 11
-6.1250
 21
20.9711
 31
0.0000
  0
LINE
  8
29
 10
-6.1250
 20
20.9711
 30
0.0000
 11
-5.9044
 21
20.9711
 31
0.0000
  0
LINE
  8
29
 10
-5.9044
 20
20.9711
 30
0.0000
 11
-5.6839
 21
20.7505
 31
0.0000
  0
LINE
  8
29
 10
-5.6839
 20
20.7505
 30
0.0000
 11
-5.6839
 21
20.0889
 31
0.0000
  0
LINE
  8
29
 10
-6.3455
 20
20.0889
 30
0.0000
 11
-6.3455
 21
20.7505
 31
0.0000
  0
LINE
  8
29
 10
-6.3455
 20
21.4700
 30
0.0000
 11
-6.3455
 21
22.3522
 31
0.0000
  0
LINE
  8
29
 10
-6.5661
 20
22.8511
 30
0.0000
 11
-7.0072
 21
23.2922
 31
0.0000
  0
LINE
  8
29
 10
-7.0072
 20
23.2922
 30
0.0000
 11
-5.6839
 21
23.2922
 31
0.0000
  0
LINE
  8
29
 10
-5.6839
 20
22.8511
 30
0.0000
 11
-5.6839
 21
23.7333
 31
0.0000
  0
LINE
  8
29
 10
-5.6839
 20
24.8938
 30
0.0000
 11
-7.0072
 21
24.8938
 31
0.0000
  0
LINE
  8
29
 10
-7.0072
 20
24.8938
 30
0.0000
 11
-6.3455
 21
24.2322
 31
0.0000
  0
LINE
  8
29
 10
-6.3455
 20
24.2322
 30
0.0000
 11
-6.3455
 21
25.1144
 31
0.0000
  0
LINE
  8
29
 10
-3.1439
 20
20.0889
 30
0.0000
 11
-4.4672
 21
20.0889
 31
0.0000
  0
LINE
  8
29
 10
-4.4672
 20
20.0889
 30
0.0000
 11
-4.4672
 21
20.7505
 31
0.0000
  0
LINE
  8
29
 10
-4.4672
 20
20.7505
 30
0.0000
 11
-4.2466
 21
20.9711
 31
0.0000
  0
LINE
  8
29
 10
-4.2466
 20
20.9711
 30
0.0000
 11
-4.0261
 21
20.9711
 31
0.0000
  0
LINE
  8
29
 10
-4.0261
 20
20.9711
 30
0.0000
 11
-3.8055
 21
20.7505
 31
0.0000
  0
LINE
  8
29
 10
-3.8055
 20
20.7505
 30
0.0000
 11
-3.5850
 21
20.9711
 31
0.0000
  0
LINE
  8
29
 10
-3.5850
 20
20.9711
 30
0.0000
 11
-3.3644
 21
20.9711
 31
0.0000
  0
LINE
  8
29
 10
-3.3644
 20
20.9711
 30
0.0000
 11
-3.1439
 21
20.7505
 31
0.0000
  0
LINE
  8
29
 10
-3.1439
 20
20.7505
 30
0.0000
 11
-3.1439
 21
20.0889
 31
0.0000
  0
LINE
  8
29
 10
-3.8055
 20
20.0889
 30
0.0000
 11
-3.8055
 21
20.7505
 31
0.0000
  0
LINE
  8
29
 10
-3.8055
 20
21.4700
 30
0.0000
 11
-3.8055
 21
22.3522
 31
0.0000
  0
LINE
  8
29
 10
-4.0261
 20
22.8511
 30
0.0000
 11
-4.4672
 21
23.2922
 31
0.0000
  0
LINE
  8
29
 10
-4.4672
 20
23.2922
 30
0.0000
 11
-3.1439
 21
23.2922
 31
0.0000
  0
LINE
  8
29
 10
-3.1439
 20
22.8511
 30
0.0000
 11
-3.1439
 21
23.7333
 31
0.0000
  0
LINE
  8
29
 10
-4.4672
 20
25.1144
 30
0.0000
 11
-4.4672
 21
24.2322
 31
0.0000
  0
LINE
  8
29
 10
-4.4672
 20
24.2322
 30
0.0000
 11
-3.8055
 21
24.2322
 31
0.0000
  0
LINE
  8
29
 10
-3.8055
 20
24.2322
 30
0.0000
 11
-4.0261
 21
24.6733
 31
0.0000
  0
LINE
  8
29
 10
-4.0261
 20
24.6733
 30
0.0000
 11
-4.0261
 21
24.8938
 31
0.0000
  0
LINE
  8
29
 10
-4.0261
 20
24.8938
 30
0.0000
 11
-3.8055
 21
25.1144
 31
0.0000
  0
LINE
  8
29
 10
-3.8055
 20
25.1144
 30
0.0000
 11
-3.3644
 21
25.1144
 31
0.0000
  0
LINE
  8
29
 10
-3.3644
 20
25.1144
 30
0.0000
 11
-3.1439
 21
24.8938
 31
0.0000
  0
LINE
  8
29
 10
-3.1439
 20
24.8938
 30
0.0000
 11
-3.1439
 21
24.4527
 31
0.0000
  0
LINE
  8
29
 10
-3.1439
 20
24.4527
 30
0.0000
 11
-3.3644
 21
24.2322
 31
0.0000
  0
LINE
  8
29
 10
-0.6039
 20
20.0889
 30
0.0000
 11
-1.9272
 21
20.0889
 31
0.0000
  0
LINE
  8
29
 10
-1.9272
 20
20.0889
 30
0.0000
 11
-1.9272
 21
20.7505
 31
0.0000
  0
LINE
  8
29
 10
-1.9272
 20
20.7505
 30
0.0000
 11
-1.7066
 21
20.9711
 31
0.0000
  0
LINE
  8
29
 10
-1.7066
 20
20.9711
 30
0.0000
 11
-1.4861
 21
20.9711
 31
0.0000
  0
LINE
  8
29
 10
-1.4861
 20
20.9711
 30
0.0000
 11
-1.2655
 21
20.7505
 31
0.0000
  0
LINE
  8
29
 10
-1.2655
 20
20.7505
 30
0.0000
 11
-1.0450
 21
20.9711
 31
0.0000
  0
LINE
  8
29
 10
-1.0450
 20
20.9711
 30
0.0000
 11
-0.8244
 21
20.9711
 31
0.0000
  0
LINE
  8
29
 10
-0.8244
 20
20.9711
 30
0.0000
 11
-0.6039
 21
20.7505
 31
0.0000
  0
LINE
  8
29
 10
-0.6039
 20
20.7505
 30
0.0000
 11
-0.6039
 21
20.0889
 31
0.0000
  0
LINE
  8
29
 10
-1.2655
 20
20.0889
 30
0.0000
 11
-1.2655
 21
20.7505
 31
0.0000
  0
LINE
  8
29
 10
-1.2655
 20
21.4700
 30
0.0000
 11
-1.2655
 21
22.3522
 31
0.0000
  0
LINE
  8
29
 10
-1.4861
 20
22.8511
 30
0.0000
 11
-1.9272
 21
23.2922
 31
0.0000
  0
LINE
  8
29
 10
-1.9272
 20
23.2922
 30
0.0000
 11
-0.6039
 21
23.2922
 31
0.0000
  0
LINE
  8
29
 10
-0.6039
 20
22.8511
 30
0.0000
 11
-0.6039
 21
23.7333
 31
0.0000
  0
LINE
  8
29
 10
-1.9272
 20
25.1144
 30
0.0000
 11
-1.7066
 21
24.6733
 31
0.0000
  0
LINE
  8
29
 10
-1.7066
 20
24.6733
 30
0.0000
 11
-1.2655
 21
24.2322
 31
0.0000
  0
LINE
  8
29
 10
-1.2655
 20
24.2322
 30
0.0000
 11
-0.8244
 21
24.2322
 31
0.0000
  0
LINE
  8
29
 10
-0.8244
 20
24.2322
 30
0.0000
 11
-0.6039
 21
24.4527
 31
0.0000
  0
LINE
  8
29
 10
-0.6039
 20
24.4527
 30
0.0000
 11
-0.6039
 21
24.8938
 31
0.0000
  0
LINE
  8
29
 10
-0.6039
 20
24.8938
 30
0.0000
 11
-0.8244
 21
25.1144
 31
0.0000
  0
LINE
  8
29
 10
-0.8244
 20
25.1144
 30
0.0000
 11
-1.0450
 21
25.1144
 31
0.0000
  0
LINE
  8
29
 10
-1.0450
 20
25.1144
 30
0.0000
 11
-1.2655
 21
24.8938
 31
0.0000
  0
LINE
  8
29
 10
-1.2655
 20
24.8938
 30
0.0000
 11
-1.2655
 21
24.2322
 31
0.0000
  0
LINE
  8
29
 10
1.9361
 20
20.0889
 30
0.0000
 11
0.6128
 21
20.0889
 31
0.0000
  0
LINE
  8
29
 10
0.6128
 20
20.0889
 30
0.0000
 11
0.6128
 21
20.7505
 31
0.0000
  0
LINE
  8
29
 10
0.6128
 20
20.7505
 30
0.0000
 11
0.8334
 21
20.9711
 31
0.0000
  0
LINE
  8
29
 10
0.8334
 20
20.9711
 30
0.0000
 11
1.0539
 21
20.9711
 31
0.0000
  0
LINE
  8
29
 10
1.0539
 20
20.9711
 30
0.0000
 11
1.2745
 21
20.7505
 31
0.0000
  0
LINE
  8
29
 10
1.2745
 20
20.7505
 30
0.0000
 11
1.4950
 21
20.9711
 31
0.0000
  0
LINE
  8
29
 10
1.4950
 20
20.9711
 30
0.0000
 11
1.7156
 21
20.9711
 31
0.0000
  0
LINE
  8
29
 10
1.7156
 20
20.9711
 30
0.0000
 11
1.9361
 21
20.7505
 31
0.0000
  0
LINE
  8
29
 10
1.9361
 20
20.7505
 30
0.0000
 11
1.9361
 21
20.0889
 31
0.0000
  0
LINE
  8
29
 10
1.2745
 20
20.0889
 30
0.0000
 11
1.2745
 21
20.7505
 31
0.0000
  0
LINE
  8
29
 10
1.2745
 20
21.4700
 30
0.0000
 11
1.2745
 21
22.3522
 31
0.0000
  0
LINE
  8
29
 10
1.0539
 20
22.8511
 30
0.0000
 11
0.6128
 21
23.2922
 31
0.0000
  0
LINE
  8
29
 10
0.6128
 20
23.2922
 30
0.0000
 11
1.9361
 21
23.2922
 31
0.0000
  0
LINE
  8
29
 10
1.9361
 20
22.8511
 30
0.0000
 11
1.9361
 21
23.7333
 31
0.0000
  0
LINE
  8
29
 10
0.6128
 20
24.2322
 30
0.0000
 11
0.6128
 21
25.1144
 31
0.0000
  0
LINE
  8
29
 10
0.6128
 20
25.1144
 30
0.0000
 11
0.8334
 21
25.1144
 31
0.0000
  0
LINE
  8
29
 10
0.8334
 20
25.1144
 30
0.0000
 11
1.7156
 21
24.2322
 31
0.0000
  0
LINE
  8
29
 10
1.7156
 20
24.2322
 30
0.0000
 11
1.9361
 21
24.2322
 31
0.0000
  0
LINE
  8
29
 10
4.4761
 20
20.0889
 30
0.0000
 11
3.1528
 21
20.0889
 31
0.0000
  0
LINE
  8
29
 10
3.1528
 20
20.0889
 30
0.0000
 11
3.1528
 21
20.7505
 31
0.0000
  0
LINE
  8
29
 10
3.1528
 20
20.7505
 30
0.0000
 11
3.3734
 21
20.9711
 31
0.0000
  0
LINE
  8
29
 10
3.3734
 20
20.9711
 30
0.0000
 11
3.5939
 21
20.9711
 31
0.0000
  0
LINE
  8
29
 10
3.5939
 20
20.9711
 30
0.0000
 11
3.8145
 21
20.7505
 31
0.0000
  0
LINE
  8
29
 10
3.8145
 20
20.7505
 30
0.0000
 11
4.0350
 21
20.9711
 31
0.0000
  0
LINE
  8
29
 10
4.0350
 20
20.9711
 30
0.0000
 11
4.2556
 21
20.9711
 31
0.0000
  0
LINE
  8
29
 10
4.2556
 20
20.9711
 30
0.0000
 11
4.4761
 21
20.7505
 31
0.0000
  0
LINE
  8
29
 10
4.4761
 20
20.7505
 30
0.0000
 11
4.4761
 21
20.0889
 31
0.0000
  0
LINE
  8
29
 10
3.8145
 20
20.0889
 30
0.0000
 11
3.8145
 21
20.7505
 31
0.0000
  0
LINE
  8
29
 10
3.8145
 20
21.4700
 30
0.0000
 11
3.8145
 21
22.3522
 31
0.0000
  0
LINE
  8
29
 10
3.5939
 20
22.8511
 30
0.0000
 11
3.1528
 21
23.2922
 31
0.0000
  0
LINE
  8
29
 10
3.1528
 20
23.2922
 30
0.0000
 11
4.4761
 21
23.2922
 31
0.0000
  0
LINE
  8
29
 10
4.4761
 20
22.8511
 30
0.0000
 11
4.4761
 21
23.7333
 31
0.0000
  0
LINE
  8
29
 10
3.3734
 20
24.2322
 30
0.0000
 11
3.1528
 21
24.4527
 31
0.0000
  0
LINE
  8
29
 10
3.1528
 20
24.4527
 30
0.0000
 11
3.1528
 21
24.8938
 31
0.0000
  0
LINE
  8
29
 10
3.1528
 20
24.8938
 30
0.0000
 11
3.3734
 21
25.1144
 31
0.0000
  0
LINE
  8
29
 10
3.3734
 20
25.1144
 30
0.0000
 11
3.5939
 21
25.1144
 31
0.0000
  0
LINE
  8
29
 10
3.5939
 20
25.1144
 30
0.0000
 11
3.8145
 21
24.8938
 31
0.0000
  0
LINE
  8
29
 10
3.8145
 20
24.8938
 30
0.0000
 11
4.0350
 21
25.1144
 31
0.0000
  0
LINE
  8
29
 10
4.0350
 20
25.1144
 30
0.0000
 11
4.2556
 21
25.1144
 31
0.0000
  0
LINE
  8
29
 10
4.2556
 20
25.1144
 30
0.0000
 11
4.4761
 21
24.8938
 31
0.0000
  0
LINE
  8
29
 10
4.4761
 20
24.8938
 30
0.0000
 11
4.4761
 21
24.4527
 31
0.0000
  0
LINE
  8
29
 10
4.4761
 20
24.4527
 30
0.0000
 11
4.2556
 21
24.2322
 31
0.0000
  0
LINE
  8
29
 10
4.2556
 20
24.2322
 30
0.0000
 11
4.0350
 21
24.2322
 31
0.0000
  0
LINE
  8
29
 10
4.0350
 20
24.2322
 30
0.0000
 11
3.8145
 21
24.4527
 31
0.0000
  0
LINE
  8
29
 10
3.8145
 20
24.4527
 30
0.0000
 11
3.5939
 21
24.2322
 31
0.0000
  0
LINE
  8
29
 10
3.5939
 20
24.2322
 30
0.0000
 11
3.3734
 21
24.2322
 31
0.0000
  0
LINE
  8
29
 10
3.8145
 20
24.4527
 30
0.0000
 11
3.8145
 21
24.8938
 31
0.0000
  0
LINE
  8
29
 10
7.0161
 20
20.0889
 30
0.0000
 11
5.6928
 21
20.0889
 31
0.0000
  0
LINE
  8
29
 10
5.6928
 20
20.0889
 30
0.0000
 11
5.6928
 21
20.7505
 31
0.0000
  0
LINE
  8
29
 10
5.6928
 20
20.7505
 30
0.0000
 11
5.9134
 21
20.9711
 31
0.0000
  0
LINE
  8
29
 10
5.9134
 20
20.9711
 30
0.0000
 11
6.1339
 21
20.9711
 31
0.0000
  0
LINE
  8
29
 10
6.1339
 20
20.9711
 30
0.0000
 11
6.3545
 21
20.7505
 31
0.0000
  0
LINE
  8
29
 10
6.3545
 20
20.7505
 30
0.0000
 11
6.5750
 21
20.9711
 31
0.0000
  0
LINE
  8
29
 10
6.5750
 20
20.9711
 30
0.0000
 11
6.7956
 21
20.9711
 31
0.0000
  0
LINE
  8
29
 10
6.7956
 20
20.9711
 30
0.0000
 11
7.0161
 21
20.7505
 31
0.0000
  0
LINE
  8
29
 10
7.0161
 20
20.7505
 30
0.0000
 11
7.0161
 21
20.0889
 31
0.0000
  0
LINE
  8
29
 10
6.3545
 20
20.0889
 30
0.0000
 11
6.3545
 21
20.7505
 31
0.0000
  0
LINE
  8
29
 10
6.3545
 20
21.4700
 30
0.0000
 11
6.3545
 21
22.3522
 31
0.0000
  0
LINE
  8
29
 10
6.1339
 20
22.8511
 30
0.0000
 11
5.6928
 21
23.2922
 31
0.0000
  0
LINE
  8
29
 10
5.6928
 20
23.2922
 30
0.0000
 11
7.0161
 21
23.2922
 31
0.0000
  0
LINE
  8
29
 10
7.0161
 20
22.8511
 30
0.0000
 11
7.0161
 21
23.7333
 31
0.0000
  0
LINE
  8
29
 10
6.7956
 20
24.2322
 30
0.0000
 11
7.0161
 21
24.4527
 31
0.0000
  0
LINE
  8
29
 10
7.0161
 20
24.4527
 30
0.0000
 11
7.0161
 21
24.8938
 31
0.0000
  0
LINE
  8
29
 10
7.0161
 20
24.8938
 30
0.0000
 11
6.7956
 21
25.1144
 31
0.0000
  0
LINE
  8
29
 10
6.7956
 20
25.1144
 30
0.0000
 11
5.9134
 21
25.1144
 31
0.0000
  0
LINE
  8
29
 10
5.9134
 20
25.1144
 30
0.0000
 11
5.6928
 21
24.8938
 31
0.0000
  0
LINE
  8
29
 10
5.6928
 20
24.8938
 30
0.0000
 11
5.6928
 21
24.4527
 31
0.0000
  0
LINE
  8
29
 10
5.6928
 20
24.4527
 30
0.0000
 11
5.9134
 21
24.2322
 31
0.0000
  0
LINE
  8
29
 10
5.9134
 20
24.2322
 30
0.0000
 11
6.1339
 21
24.2322
 31
0.0000
  0
LINE
  8
29
 10
6.1339
 20
24.2322
 30
0.0000
 11
6.3545
 21
24.4527
 31
0.0000
  0
LINE
  8
29
 10
6.3545
 20
24.4527
 30
0.0000
 11
6.3545
 21
25.1144
 31
0.0000
  0
LINE
  8
29
 10
9.5561
 20
20.0889
 30
0.0000
 11
8.2328
 21
20.0889
 31
0.0000
  0
LINE
  8
29
 10
8.2328
 20
20.0889
 30
0.0000
 11
8.2328
 21
20.7505
 31
0.0000
  0
LINE
  8
29
 10
8.2328
 20
20.7505
 30
0.0000
 11
8.4534
 21
20.9711
 31
0.0000
  0
LINE
  8
29
 10
8.4534
 20
20.9711
 30
0.0000
 11
8.6739
 21
20.9711
 31
0.0000
  0
LINE
  8
29
 10
8.6739
 20
20.9711
 30
0.0000
 11
8.8945
 21
20.7505
 31
0.0000
  0
LINE
  8
29
 10
8.8945
 20
20.7505
 30
0.0000
 11
9.1150
 21
20.9711
 31
0.0000
  0
LINE
  8
29
 10
9.1150
 20
20.9711
 30
0.0000
 11
9.3356
 21
20.9711
 31
0.0000
  0
LINE
  8
29
 10
9.3356
 20
20.9711
 30
0.0000
 11
9.5561
 21
20.7505
 31
0.0000
  0
LINE
  8
29
 10
9.5561
 20
20.7505
 30
0.0000
 11
9.5561
 21
20.0889
 31
0.0000
  0
LINE
  8
29
 10
8.8945
 20
20.0889
 30
0.0000
 11
8.8945
 21
20.7505
 31
0.0000
  0
LINE
  8
29
 10
8.8945
 20
21.4700
 30
0.0000
 11
8.8945
 21
22.3522
 31
0.0000
  0
LINE
  8
29
 10
9.5561
 20
23.7333
 30
0.0000
 11
9.5561
 21
22.8511
 31
0.0000
  0
LINE
  8
29
 10
9.5561
 20
22.8511
 30
0.0000
 11
8.6739
 21
23.7333
 31
0.0000
  0
LINE
  8
29
 10
8.6739
 20
23.7333
 30
0.0000
 11
8.4534
 21
23.7333
 31
0.0000
  0
LINE
  8
29
 10
8.4534
 20
23.7333
 30
0.0000
 11
8.2328
 21
23.5127
 31
0.0000
  0
LINE
  8
29
 10
8.2328
 20
23.5127
 30
0.0000
 11
8.2328
 21
23.0716
 31
0.0000
  0
LINE
  8
29
 10
8.2328
 20
23.0716
 30
0.0000
 11
8.4534
 21
22.8511
 31
0.0000
  0
LINE
  8
29
 10
9.3356
 20
24.2322
 30
0.0000
 11
8.4534
 21
24.2322
 31
0.0000
  0
LINE
  8
29
 10
8.4534
 20
24.2322
 30
0.0000
 11
8.2328
 21
24.4527
 31
0.0000
  0
LINE
  8
29
 10
8.2328
 20
24.4527
 30
0.0000
 11
8.2328
 21
24.8938
 31
0.0000
  0
LINE
  8
29
 10
8.2328
 20
24.8938
 30
0.0000
 11
8.4534
 21
25.1144
 31
0.0000
  0
LINE
  8
29
 10
8.4534
 20
25.1144
 30
0.0000
 11
9.3356
 21
25.1144
 31
0.0000
  0
LINE
  8
29
 10
9.3356
 20
25.1144
 30
0.0000
 11
9.5561
 21
24.8938
 31
0.0000
  0
LINE
  8
29
 10
9.5561
 20
24.8938
 30
0.0000
 11
9.5561
 21
24.4527
 31
0.0000
  0
LINE
  8
29
 10
9.5561
 20
24.4527
 30
0.0000
 11
9.3356
 21
24.2322
 31
0.0000
  0
LINE
  8
29
 10
9.3356
 20
24.2322
 30
0.0000
 11
8.4534
 21
25.1144
 31
0.0000
  0
LINE
  8
29
 10
12.0961
 20
20.0889
 30
0.0000
 11
10.7728
 21
20.0889
 31
0.0000
  0
LINE
  8
29
 10
10.7728
 20
20.0889
 30
0.0000
 11
10.7728
 21
20.7505
 31
0.0000
  0
LINE
  8
29
 10
10.7728
 20
20.7505
 30
0.0000
 11
10.9934
 21
20.9711
 31
0.0000
  0
LINE
  8
29
 10
10.9934
 20
20.9711
 30
0.0000
 11
11.2139
 21
20.9711
 31
0.0000
  0
LINE
  8
29
 10
11.2139
 20
20.9711
 30
0.0000
 11
11.4345
 21
20.7505
 31
0.0000
  0
LINE
  8
29
 10
11.4345
 20
20.7505
 30
0.0000
 11
11.6550
 21
20.9711
 31
0.0000
  0
LINE
  8
29
 10
11.6550
 20
20.9711
 30
0.0000
 11
11.8756
 21
20.9711
 31
0.0000
  0
LINE
  8
29
 10
11.8756
 20
20.9711
 30
0.0000
 11
12.0961
 21
20.7505
 31
0.0000
  0
LINE
  8
29
 10
12.0961
 20
20.7505
 30
0.0000
 11
12.0961
 21
20.0889
 31
0.0000
  0
LINE
  8
29
 10
11.4345
 20
20.0889
 30
0.0000
 11
11.4345
 21
20.7505
 31
0.0000
  0
LINE
  8
29
 10
11.4345
 20
21.4700
 30
0.0000
 11
11.4345
 21
22.3522
 31
0.0000
  0
LINE
  8
29
 10
12.0961
 20
23.7333
 30
0.0000
 11
12.0961
 21
22.8511
 31
0.0000
  0
LINE
  8
29
 10
12.0961
 20
22.8511
 30
0.0000
 11
11.2139
 21
23.7333
 31
0.0000
  0
LINE
  8
29
 10
11.2139
 20
23.7333
 30
0.0000
 11
10.9934
 21
23.7333
 31
0.0000
  0
LINE
  8
29
 10
10.9934
 20
23.7333
 30
0.0000
 11
10.7728
 21
23.5127
 31
0.0000
  0
LINE
  8
29
 10
10.7728
 20
23.5127
 30
0.0000
 11
10.7728
 21
23.0716
 31
0.0000
  0
LINE
  8
29
 10
10.7728
 20
23.0716
 30
0.0000
 11
10.9934
 21
22.8511
 31
0.0000
  0
LINE
  8
29
 10
11.2139
 20
24.2322
 30
0.0000
 11
10.7728
 21
24.6733
 31
0.0000
  0
LINE
  8
29
 10
10.7728
 20
24.6733
 30
0.0000
 11
12.0961
 21
24.6733
 31
0.0000
  0
LINE
  8
29
 10
12.0961
 20
24.2322
 30
0.0000
 11
12.0961
 21
25.1144
 31
0.0000
  0
LINE
  8
29
 10
14.6361
 20
20.0889
 30
0.0000
 11
13.3128
 21
20.0889
 31
0.0000
  0
LINE
  8
29
 10
13.3128
 20
20.0889
 30
0.0000
 11
13.3128
 21
20.7505
 31
0.0000
  0
LINE
  8
29
 10
13.3128
 20
20.7505
 30
0.0000
 11
13.5334
 21
20.9711
 31
0.0000
  0
LINE
  8
29
 10
13.5334
 20
20.9711
 30
0.0000
 11
13.7539
 21
20.9711
 31
0.0000
  0
LINE
  8
29
 10
13.7539
 20
20.9711
 30
0.0000
 11
13.9745
 21
20.7505
 31
0.0000
  0
LINE
  8
29
 10
13.9745
 20
20.7505
 30
0.0000
 11
14.1950
 21
20.9711
 31
0.0000
  0
LINE
  8
29
 10
14.1950
 20
20.9711
 30
0.0000
 11
14.4156
 21
20.9711
 31
0.0000
  0
LINE
  8
29
 10
14.4156
 20
20.9711
 30
0.0000
 11
14.6361
 21
20.7505
 31
0.0000
  0
LINE
  8
29
 10
14.6361
 20
20.7505
 30
0.0000
 11
14.6361
 21
20.0889
 31
0.0000
  0
LINE
  8
29
 10
13.9745
 20
20.0889
 30
0.0000
 11
13.9745
 21
20.7505
 31
0.0000
  0
LINE
  8
29
 10
13.9745
 20
21.4700
 30
0.0000
 11
13.9745
 21
22.3522
 31
0.0000
  0
LINE
  8
29
 10
14.6361
 20
23.7333
 30
0.0000
 11
14.6361
 21
22.8511
 31
0.0000
  0
LINE
  8
29
 10
14.6361
 20
22.8511
 30
0.0000
 11
13.7539
 21
23.7333
 31
0.0000
  0
LINE
  8
29
 10
13.7539
 20
23.7333
 30
0.0000
 11
13.5334
 21
23.7333
 31
0.0000
  0
LINE
  8
29
 10
13.5334
 20
23.7333
 30
0.0000
 11
13.3128
 21
23.5127
 31
0.0000
  0
LINE
  8
29
 10
13.3128
 20
23.5127
 30
0.0000
 11
13.3128
 21
23.0716
 31
0.0000
  0
LINE
  8
29
 10
13.3128
 20
23.0716
 30
0.0000
 11
13.5334
 21
22.8511
 31
0.0000
  0
LINE
  8
29
 10
14.6361
 20
25.1144
 30
0.0000
 11
14.6361
 21
24.2322
 31
0.0000
  0
LINE
  8
29
 10
14.6361
 20
24.2322
 30
0.0000
 11
13.7539
 21
25.1144
 31
0.0000
  0
LINE
  8
29
 10
13.7539
 20
25.1144
 30
0.0000
 11
13.5334
 21
25.1144
 31
0.0000
  0
LINE
  8
29
 10
13.5334
 20
25.1144
 30
0.0000
 11
13.3128
 21
24.8938
 31
0.0000
  0
LINE
  8
29
 10
13.3128
 20
24.8938
 30
0.0000
 11
13.3128
 21
24.4527
 31
0.0000
  0
LINE
  8
29
 10
13.3128
 20
24.4527
 30
0.0000
 11
13.5334
 21
24.2322
 31
0.0000
  0
LINE
  8
29
 10
17.1761
 20
20.0889
 30
0.0000
 11
15.8528
 21
20.0889
 31
0.0000
  0
LINE
  8
29
 10
15.8528
 20
20.0889
 30
0.0000
 11
15.8528
 21
20.7505
 31
0.0000
  0
LINE
  8
29
 10
15.8528
 20
20.7505
 30
0.0000
 11
16.0734
 21
20.9711
 31
0.0000
  0
LINE
  8
29
 10
16.0734
 20
20.9711
 30
0.0000
 11
16.2939
 21
20.9711
 31
0.0000
  0
LINE
  8
29
 10
16.2939
 20
20.9711
 30
0.0000
 11
16.5145
 21
20.7505
 31
0.0000
  0
LINE
  8
29
 10
16.5145
 20
20.7505
 30
0.0000
 11
16.7350
 21
20.9711
 31
0.0000
  0
LINE
  8
29
 10
16.7350
 20
20.9711
 30
0.0000
 11
16.9556
 21
20.9711
 31
0.0000
  0
LINE
  8
29
 10
16.9556
 20
20.9711
 30
0.0000
 11
17.1761
 21
20.7505
 31
0.0000
  0
LINE
  8
29
 10
17.1761
 20
20.7505
 30
0.0000
 11
17.1761
 21
20.0889
 31
0.0000
  0
LINE
  8
29
 10
16.5145
 20
20.0889
 30
0.0000
 11
16.5145
 21
20.7505
 31
0.0000
  0
LINE
  8
29
 10
16.5145
 20
21.4700
 30
0.0000
 11
16.5145
 21
22.3522
 31
0.0000
  0
LINE
  8
29
 10
17.1761
 20
23.7333
 30
0.0000
 11
17.1761
 21
22.8511
 31
0.0000
  0
LINE
  8
29
 10
17.1761
 20
22.8511
 30
0.0000
 11
16.2939
 21
23.7333
 31
0.0000
  0
LINE
  8
29
 10
16.2939
 20
23.7333
 30
0.0000
 11
16.0734
 21
23.7333
 31
0.0000
  0
LINE
  8
29
 10
16.0734
 20
23.7333
 30
0.0000
 11
15.8528
 21
23.5127
 31
0.0000
  0
LINE
  8
29
 10
15.8528
 20
23.5127
 30
0.0000
 11
15.8528
 21
23.0716
 31
0.0000
  0
LINE
  8
29
 10
15.8528
 20
23.0716
 30
0.0000
 11
16.0734
 21
22.8511
 31
0.0000
  0
LINE
  8
29
 10
16.0734
 20
24.2322
 30
0.0000
 11
15.8528
 21
24.4527
 31
0.0000
  0
LINE
  8
29
 10
15.8528
 20
24.4527
 30
0.0000
 11
15.8528
 21
24.8938
 31
0.0000
  0
LINE
  8
29
 10
15.8528
 20
24.8938
 30
0.0000
 11
16.0734
 21
25.1144
 31
0.0000
  0
LINE
  8
29
 10
16.0734
 20
25.1144
 30
0.0000
 11
16.2939
 21
25.1144
 31
0.0000
  0
LINE
  8
29
 10
16.2939
 20
25.1144
 30
0.0000
 11
16.5145
 21
24.8938
 31
0.0000
  0
LINE
  8
29
 10
16.5145
 20
24.8938
 30
0.0000
 11
16.5145
 21
24.6733
 31
0.0000
  0
LINE
  8
29
 10
16.5145
 20
24.8938
 30
0.0000
 11
16.7350
 21
25.1144
 31
0.0000
  0
LINE
  8
29
 10
16.7350
 20
25.1144
 30
0.0000
 11
16.9556
 21
25.1144
 31
0.0000
  0
LINE
  8
29
 10
16.9556
 20
25.1144
 30
0.0000
 11
17.1761
 21
24.8938
 31
0.0000
  0
LINE
  8
29
 10
17.1761
 20
24.8938
 30
0.0000
 11
17.1761
 21
24.4527
 31
0.0000
  0
LINE
  8
29
 10
17.1761
 20
24.4527
 30
0.0000
 11
16.9556
 21
24.2322
 31
0.0000
  0
LINE
  8
29
 10
19.7161
 20
20.0889
 30
0.0000
 11
18.3928
 21
20.0889
 31
0.0000
  0
LINE
  8
29
 10
18.3928
 20
20.0889
 30
0.0000
 11
18.3928
 21
20.7505
 31
0.0000
  0
LINE
  8
29
 10
18.3928
 20
20.7505
 30
0.0000
 11
18.6134
 21
20.9711
 31
0.0000
  0
LINE
  8
29
 10
18.6134
 20
20.9711
 30
0.0000
 11
18.8339
 21
20.9711
 31
0.0000
  0
LINE
  8
29
 10
18.8339
 20
20.9711
 30
0.0000
 11
19.0545
 21
20.7505
 31
0.0000
  0
LINE
  8
29
 10
19.0545
 20
20.7505
 30
0.0000
 11
19.2750
 21
20.9711
 31
0.0000
  0
LINE
  8
29
 10
19.2750
 20
20.9711
 30
0.0000
 11
19.4956
 21
20.9711
 31
0.0000
  0
LINE
  8
29
 10
19.4956
 20
20.9711
 30
0.0000
 11
19.7161
 21
20.7505
 31
0.0000
  0
LINE
  8
29
 10
19.7161
 20
20.7505
 30
0.0000
 11
19.7161
 21
20.0889
 31
0.0000
  0
LINE
  8
29
 10
19.0545
 20
20.0889
 30
0.0000
 11
19.0545
 21
20.7505
 31
0.0000
  0
LINE
  8
29
 10
19.0545
 20
21.4700
 30
0.0000
 11
19.0545
 21
22.3522
 31
0.0000
  0
LINE
  8
29
 10
19.7161
 20
23.7333
 30
0.0000
 11
19.7161
 21
22.8511
 31
0.0000
  0
LINE
  8
29
 10
19.7161
 20
22.8511
 30
0.0000
 11
18.8339
 21
23.7333
 31
0.0000
  0
LINE
  8
29
 10
18.8339
 20
23.7333
 30
0.0000
 11
18.6134
 21
23.7333
 31
0.0000
  0
LINE
  8
29
 10
18.6134
 20
23.7333
 30
0.0000
 11
18.3928
 21
23.5127
 31
0.0000
  0
LINE
  8
29
 10
18.3928
 20
23.5127
 30
0.0000
 11
18.3928
 21
23.0716
 31
0.0000
  0
LINE
  8
29
 10
18.3928
 20
23.0716
 30
0.0000
 11
18.6134
 21
22.8511
 31
0.0000
  0
LINE
  8
29
 10
19.7161
 20
24.8938
 30
0.0000
 11
18.3928
 21
24.8938
 31
0.0000
  0
LINE
  8
29
 10
18.3928
 20
24.8938
 30
0.0000
 11
19.0545
 21
24.2322
 31
0.0000
  0
LINE
  8
29
 10
19.0545
 20
24.2322
 30
0.0000
 11
19.0545
 21
25.1144
 31
0.0000
  0
LINE
  8
29
 10
22.2561
 20
20.0889
 30
0.0000
 11
20.9328
 21
20.0889
 31
0.0000
  0
LINE
  8
29
 10
20.9328
 20
20.0889
 30
0.0000
 11
20.9328
 21
20.7505
 31
0.0000
  0
LINE
  8
29
 10
20.9328
 20
20.7505
 30
0.0000
 11
21.1534
 21
20.9711
 31
0.0000
  0
LINE
  8
29
 10
21.1534
 20
20.9711
 30
0.0000
 11
21.3739
 21
20.9711
 31
0.0000
  0
LINE
  8
29
 10
21.3739
 20
20.9711
 30
0.0000
 11
21.5945
 21
20.7505
 31
0.0000
  0
LINE
  8
29
 10
21.5945
 20
20.7505
 30
0.0000
 11
21.8150
 21
20.9711
 31
0.0000
  0
LINE
  8
29
 10
21.8150
 20
20.9711
 30
0.0000
 11
22.0356
 21
20.9711
 31
0.0000
  0
LINE
  8
29
 10
22.0356
 20
20.9711
 30
0.0000
 11
22.2561
 21
20.7505
 31
0.0000
  0
LINE
  8
29
 10
22.2561
 20
20.7505
 30
0.0000
 11
22.2561
 21
20.0889
 31
0.0000
  0
LINE
  8
29
 10
21.5945
 20
20.0889
 30
0.0000
 11
21.5945
 21
20.7505
 31
0.0000
  0
LINE
  8
29
 10
21.5945
 20
21.4700
 30
0.0000
 11
21.5945
 21
22.3522
 31
0.0000
  0
LINE
  8
29
 10
22.2561
 20
23.7333
 30
0.0000
 11
22.2561
 21
22.8511
 31
0.0000
  0
LINE
  8
29
 10
22.2561
 20
22.8511
 30
0.0000
 11
21.3739
 21
23.7333
 31
0.0000
  0
LINE
  8
29
 10
21.3739
 20
23.7333
 30
0.0000
 11
21.1534
 21
23.7333
 31
0.0000
  0
LINE
  8
29
 10
21.1534
 20
23.7333
 30
0.0000
 11
20.9328
 21
23.5127
 31
0.0000
  0
LINE
  8
29
 10
20.9328
 20
23.5127
 30
0.0000
 11
20.9328
 21
23.0716
 31
0.0000
  0
LINE
  8
29
 10
20.9328
 20
23.0716
 30
0.0000
 11
21.1534
 21
22.8511
 31
0.0000
  0
LINE
  8
29
 10
20.9328
 20
25.1144
 30
0.0000
 11
20.9328
 21
24.2322
 31
0.0000
  0
LINE
  8
29
 10
20.9328
 20
24.2322
 30
0.0000
 11
21.5945
 21
24.2322
 31
0.0000
  0
LINE
  8
29
 10
21.5945
 20
24.2322
 30
0.0000
 11
21.3739
 21
24.6733
 31
0.0000
  0
LINE
  8
29
 10
21.3739
 20
24.6733
 30
0.0000
 11
21.3739
 21
24.8938
 31
0.0000
  0
LINE
  8
29
 10
21.3739
 20
24.8938
 30
0.0000
 11
21.5945
 21
25.1144
 31
0.0000
  0
LINE
  8
29
 10
21.5945
 20
25.1144
 30
0.0000
 11
22.0356
 21
25.1144
 31
0.0000
  0
LINE
  8
29
 10
22.0356
 20
25.1144
 30
0.0000
 11
22.2561
 21
24.8938
 31
0.0000
  0
LINE
  8
29
 10
22.2561
 20
24.8938
 30
0.0000
 11
22.2561
 21
24.4527
 31
0.0000
  0
LINE
  8
29
 10
22.2561
 20
24.4527
 30
0.0000
 11
22.0356
 21
24.2322
 31
0.0000
  0
LINE
  8
29
 10
24.7961
 20
20.0889
 30
0.0000
 11
23.4728
 21
20.0889
 31
0.0000
  0
LINE
  8
29
 10
23.4728
 20
20.0889
 30
0.0000
 11
23.4728
 21
20.7505
 31
0.0000
  0
LINE
  8
29
 10
23.4728
 20
20.7505
 30
0.0000
 11
23.6934
 21
20.9711
 31
0.0000
  0
LINE
  8
29
 10
23.6934
 20
20.9711
 30
0.0000
 11
23.9139
 21
20.9711
 31
0.0000
  0
LINE
  8
29
 10
23.9139
 20
20.9711
 30
0.0000
 11
24.1345
 21
20.7505
 31
0.0000
  0
LINE
  8
29
 10
24.1345
 20
20.7505
 30
0.0000
 11
24.3550
 21
20.9711
 31
0.0000
  0
LINE
  8
29
 10
24.3550
 20
20.9711
 30
0.0000
 11
24.5756
 21
20.9711
 31
0.0000
  0
LINE
  8
29
 10
24.5756
 20
20.9711
 30
0.0000
 11
24.7961
 21
20.7505
 31
0.0000
  0
LINE
  8
29
 10
24.7961
 20
20.7505
 30
0.0000
 11
24.7961
 21
20.0889
 31
0.0000
  0
LINE
  8
29
 10
24.1345
 20
20.0889
 30
0.0000
 11
24.1345
 21
20.7505
 31
0.0000
  0
LINE
  8
29
 10
24.1345
 20
21.4700
 30
0.0000
 11
24.1345
 21
22.3522
 31
0.0000
  0
LINE
  8
29
 10
24.7961
 20
23.7333
 30
0.0000
 11
24.7961
 21
22.8511
 31
0.0000
  0
LINE
  8
29
 10
24.7961
 20
22.8511
 30
0.0000
 11
23.9139
 21
23.7333
 31
0.0000
  0
LINE
  8
29
 10
23.9139
 20
23.7333
 30
0.0000
 11
23.6934
 21
23.7333
 31
0.0000
  0
LINE
  8
29
 10
23.6934
 20
23.7333
 30
0.0000
 11
23.4728
 21
23.5127
 31
0.0000
  0
LINE
  8
29
 10
23.4728
 20
23.5127
 30
0.0000
 11
23.4728
 21
23.0716
 31
0.0000
  0
LINE
  8
29
 10
23.4728
 20
23.0716
 30
0.0000
 11
23.6934
 21
22.8511
 31
0.0000
  0
LINE
  8
29
 10
23.4728
 20
25.1144
 30
0.0000
 11
23.6934
 21
24.6733
 31
0.0000
  0
LINE
  8
29
 10
23.6934
 20
24.6733
 30
0.0000
 11
24.1345
 21
24.2322
 31
0.0000
  0
LINE
  8
29
 10
24.1345
 20
24.2322
 30
0.0000
 11
24.5756
 21
24.2322
 31
0.0000
  0
LINE
  8
29
 10
24.5756
 20
24.2322
 30
0.0000
 11
24.7961
 21
24.4527
 31
0.0000
  0
LINE
  8
29
 10
24.7961
 20
24.4527
 30
0.0000
 11
24.7961
 21
24.8938
 31
0.0000
  0
LINE
  8
29
 10
24.7961
 20
24.8938
 30
0.0000
 11
24.5756
 21
25.1144
 31
0.0000
  0
LINE
  8
29
 10
24.5756
 20
25.1144
 30
0.0000
 11
24.3550
 21
25.1144
 31
0.0000
  0
LINE
  8
29
 10
24.3550
 20
25.1144
 30
0.0000
 11
24.1345
 21
24.8938
 31
0.0000
  0
LINE
  8
29
 10
24.1345
 20
24.8938
 30
0.0000
 11
24.1345
 21
24.2322
 31
0.0000
  0
LINE
  8
29
 10
27.3361
 20
20.0889
 30
0.0000
 11
26.0128
 21
20.0889
 31
0.0000
  0
LINE
  8
29
 10
26.0128
 20
20.0889
 30
0.0000
 11
26.0128
 21
20.7505
 31
0.0000
  0
LINE
  8
29
 10
26.0128
 20
20.7505
 30
0.0000
 11
26.2334
 21
20.9711
 31
0.0000
  0
LINE
  8
29
 10
26.2334
 20
20.9711
 30
0.0000
 11
26.4539
 21
20.9711
 31
0.0000
  0
LINE
  8
29
 10
26.4539
 20
20.9711
 30
0.0000
 11
26.6745
 21
20.7505
 31
0.0000
  0
LINE
  8
29
 10
26.6745
 20
20.7505
 30
0.0000
 11
26.8950
 21
20.9711
 31
0.0000
  0
LINE
  8
29
 10
26.8950
 20
20.9711
 30
0.0000
 11
27.1156
 21
20.9711
 31
0.0000
  0
LINE
  8
29
 10
27.1156
 20
20.9711
 30
0.0000
 11
27.3361
 21
20.7505
 31
0.0000
  0
LINE
  8
29
 10
27.3361
 20
20.7505
 30
0.0000
 11
27.3361
 21
20.0889
 31
0.0000
  0
LINE
  8
29
 10
26.6745
 20
20.0889
 30
0.0000
 11
26.6745
 21
20.7505
 31
0.0000
  0
LINE
  8
29
 10
26.6745
 20
21.4700
 30
0.0000
 11
26.6745
 21
22.3522
 31
0.0000
  0
LINE
  8
29
 10
27.3361
 20
23.7333
 30
0.0000
 11
27.3361
 21
22.8511
 31
0.0000
  0
LINE
  8
29
 10
27.3361
 20
22.8511
 30
0.0000
 11
26.4539
 21
23.7333
 31
0.0000
  0
LINE
  8
29
 10
26.4539
 20
23.7333
 30
0.0000
 11
26.2334
 21
23.7333
 31
0.0000
  0
LINE
  8
29
 10
26.2334
 20
23.7333
 30
0.0000
 11
26.0128
 21
23.5127
 31
0.0000
  0
LINE
  8
29
 10
26.0128
 20
23.5127
 30
0.0000
 11
26.0128
 21
23.0716
 31
0.0000
  0
LINE
  8
29
 10
26.0128
 20
23.0716
 30
0.0000
 11
26.2334
 21
22.8511
 31
0.0000
  0
LINE
  8
29
 10
26.0128
 20
24.2322
 30
0.0000
 11
26.0128
 21
25.1144
 31
0.0000
  0
LINE
  8
29
 10
26.0128
 20
25.1144
 30
0.0000
 11
26.2334
 21
25.1144
 31
0.0000
  0
LINE
  8
29
 10
26.2334
 20
25.1144
 30
0.0000
 11
27.1156
 21
24.2322
 31
0.0000
  0
LINE
  8
29
 10
27.1156
 20
24.2322
 30
0.0000
 11
27.3361
 21
24.2322
 31
0.0000
  0
LINE
  8
29
 10
29.8761
 20
20.0889
 30
0.0000
 11
28.5528
 21
20.0889
 31
0.0000
  0
LINE
  8
29
 10
28.5528
 20
20.0889
 30
0.0000
 11
28.5528
 21
20.7505
 31
0.0000
  0
LINE
  8
29
 10
28.5528
 20
20.7505
 30
0.0000
 11
28.7734
 21
20.9711
 31
0.0000
  0
LINE
  8
29
 10
28.7734
 20
20.9711
 30
0.0000
 11
28.9939
 21
20.9711
 31
0.0000
  0
LINE
  8
29
 10
28.9939
 20
20.9711
 30
0.0000
 11
29.2145
 21
20.7505
 31
0.0000
  0
LINE
  8
29
 10
29.2145
 20
20.7505
 30
0.0000
 11
29.4350
 21
20.9711
 31
0.0000
  0
LINE
  8
29
 10
29.4350
 20
20.9711
 30
0.0000
 11
29.6556
 21
20.9711
 31
0.0000
  0
LINE
  8
29
 10
29.6556
 20
20.9711
 30
0.0000
 11
29.8761
 21
20.7505
 31
0.0000
  0
LINE
  8
29
 10
29.8761
 20
20.7505
 30
0.0000
 11
29.8761
 21
20.0889
 31
0.0000
  0
LINE
  8
29
 10
29.2145
 20
20.0889
 30
0.0000
 11
29.2145
 21
20.7505
 31
0.0000
  0
LINE
  8
29
 10
29.2145
 20
21.4700
 30
0.0000
 11
29.2145
 21
22.3522
 31
0.0000
  0
LINE
  8
29
 10
29.8761
 20
23.7333
 30
0.0000
 11
29.8761
 21
22.8511
 31
0.0000
  0
LINE
  8
29
 10
29.8761
 20
22.8511
 30
0.0000
 11
28.9939
 21
23.7333
 31
0.0000
  0
LINE
  8
29
 10
28.9939
 20
23.7333
 30
0.0000
 11
28.7734
 21
23.7333
 31
0.0000
  0
LINE
  8
29
 10
28.7734
 20
23.7333
 30
0.0000
 11
28.5528
 21
23.5127
 31
0.0000
  0
LINE
  8
29
 10
28.5528
 20
23.5127
 30
0.0000
 11
28.5528
 21
23.0716
 31
0.0000
  0
LINE
  8
29
 10
28.5528
 20
23.0716
 30
0.0000
 11
28.7734
 21
22.8511
 31
0.0000
  0
LINE
  8
29
 10
28.7734
 20
24.2322
 30
0.0000
 11
28.5528
 21
24.4527
 31
0.0000
  0
LINE
  8
29
 10
28.5528
 20
24.4527
 30
0.0000
 11
28.5528
 21
24.8938
 31
0.0000
  0
LINE
  8
29
 10
28.5528
 20
24.8938
 30
0.0000
 11
28.7734
 21
25.1144
 31
0.0000
  0
LINE
  8
29
 10
28.7734
 20
25.1144
 30
0.0000
 11
28.9939
 21
25.1144
 31
0.0000
  0
LINE
  8
29
 10
28.9939
 20
25.1144
 30
0.0000
 11
29.2145
 21
24.8938
 31
0.0000
  0
LINE
  8
29
 10
29.2145
 20
24.8938
 30
0.0000
 11
29.4350
 21
25.1144
 31
0.0000
  0
LINE
  8
29
 10
29.4350
 20
25.1144
 30
0.0000
 11
29.6556
 21
25.1144
 31
0.0000
  0
LINE
  8
29
 10
29.6556
 20
25.1144
 30
0.0000
 11
29.8761
 21
24.8938
 31
0.0000
  0
LINE
  8
29
 10
29.8761
 20
24.8938
 30
0.0000
 11
29.8761
 21
24.4527
 31
0.0000
  0
LINE
  8
29
 10
29.8761
 20
24.4527
 30
0.0000
 11
29.6556
 21
24.2322
 31
0.0000
  0
LINE
  8
29
 10
29.6556
 20
24.2322
 30
0.0000
 11
29.4350
 21
24.2322
 31
0.0000
  0
LINE
  8
29
 10
29.4350
 20
24.2322
 30
0.0000
 11
29.2145
 21
24.4527
 31
0.0000
  0
LINE
  8
29
 10
29.2145
 20
24.4527
 30
0.0000
 11
28.9939
 21
24.2322
 31
0.0000
  0
LINE
  8
29
 10
28.9939
 20
24.2322
 30
0.0000
 11
28.7734
 21
24.2322
 31
0.0000
  0
LINE
  8
29
 10
29.2145
 20
24.4527
 30
0.0000
 11
29.2145
 21
24.8938
 31
0.0000
  0
LINE
  8
29
 10
32.4161
 20
20.0889
 30
0.0000
 11
31.0928
 21
20.0889
 31
0.0000
  0
LINE
  8
29
 10
31.0928
 20
20.0889
 30
0.0000
 11
31.0928
 21
20.7505
 31
0.0000
  0
LINE
  8
29
 10
31.0928
 20
20.7505
 30
0.0000
 11
31.3134
 21
20.9711
 31
0.0000
  0
LINE
  8
29
 10
31.3134
 20
20.9711
 30
0.0000
 11
31.5339
 21
20.9711
 31
0.0000
  0
LINE
  8
29
 10
31.5339
 20
20.9711
 30
0.0000
 11
31.7545
 21
20.7505
 31
0.0000
  0
LINE
  8
29
 10
31.7545
 20
20.7505
 30
0.0000
 11
31.9750
 21
20.9711
 31
0.0000
  0
LINE
  8
29
 10
31.9750
 20
20.9711
 30
0.0000
 11
32.1956
 21
20.9711
 31
0.0000
  0
LINE
  8
29
 10
32.1956
 20
20.9711
 30
0.0000
 11
32.4161
 21
20.7505
 31
0.0000
  0
LINE
  8
29
 10
32.4161
 20
20.7505
 30
0.0000
 11
32.4161
 21
20.0889
 31
0.0000
  0
LINE
  8
29
 10
31.7545
 20
20.0889
 30
0.0000
 11
31.7545
 21
20.7505
 31
0.0000
  0
LINE
  8
29
 10
31.7545
 20
21.4700
 30
0.0000
 11
31.7545
 21
22.3522
 31
0.0000
  0
LINE
  8
29
 10
32.4161
 20
23.7333
 30
0.0000
 11
32.4161
 21
22.8511
 31
0.0000
  0
LINE
  8
29
 10
32.4161
 20
22.8511
 30
0.0000
 11
31.5339
 21
23.7333
 31
0.0000
  0
LINE
  8
29
 10
31.5339
 20
23.7333
 30
0.0000
 11
31.3134
 21
23.7333
 31
0.0000
  0
LINE
  8
29
 10
31.3134
 20
23.7333
 30
0.0000
 11
31.0928
 21
23.5127
 31
0.0000
  0
LINE
  8
29
 10
31.0928
 20
23.5127
 30
0.0000
 11
31.0928
 21
23.0716
 31
0.0000
  0
LINE
  8
29
 10
31.0928
 20
23.0716
 30
0.0000
 11
31.3134
 21
22.8511
 31
0.0000
  0
LINE
  8
29
 10
32.1956
 20
24.2322
 30
0.0000
 11
32.4161
 21
24.4527
 31
0.0000
  0
LINE
  8
29
 10
32.4161
 20
24.4527
 30
0.0000
 11
32.4161
 21
24.8938
 31
0.0000
  0
LINE
  8
29
 10
32.4161
 20
24.8938
 30
0.0000
 11
32.1956
 21
25.1144
 31
0.0000
  0
LINE
  8
29
 10
32.1956
 20
25.1144
 30
0.0000
 11
31.3134
 21
25.1144
 31
0.0000
  0
LINE
  8
29
 10
31.3134
 20
25.1144
 30
0.0000
 11
31.0928
 21
24.8938
 31
0.0000
  0
LINE
  8
29
 10
31.0928
 20
24.8938
 30
0.0000
 11
31.0928
 21
24.4527
 31
0.0000
  0
LINE
  8
29
 10
31.0928
 20
24.4527
 30
0.0000
 11
31.3134
 21
24.2322
 31
0.0000
  0
LINE
  8
29
 10
31.3134
 20
24.2322
 30
0.0000
 11
31.5339
 21
24.2322
 31
0.0000
  0
LINE
  8
29
 10
31.5339
 20
24.2322
 30
0.0000
 11
31.7545
 21
24.4527
 31
0.0000
  0
LINE
  8
29
 10
31.7545
 20
24.4527
 30
0.0000
 11
31.7545
 21
25.1144
 31
0.0000
  0
LINE
  8
29
 10
34.9561
 20
20.0889
 30
0.0000
 11
33.6328
 21
20.0889
 31
0.0000
  0
LINE
  8
29
 10
33.6328
 20
20.0889
 30
0.0000
 11
33.6328
 21
20.7505
 31
0.0000
  0
LINE
  8
29
 10
33.6328
 20
20.7505
 30
0.0000
 11
33.8534
 21
20.9711
 31
0.0000
  0
LINE
  8
29
 10
33.8534
 20
20.9711
 30
0.0000
 11
34.0739
 21
20.9711
 31
0.0000
  0
LINE
  8
29
 10
34.0739
 20
20.9711
 30
0.0000
 11
34.2945
 21
20.7505
 31
0.0000
  0
LINE
  8
29
 10
34.2945
 20
20.7505
 30
0.0000
 11
34.5150
 21
20.9711
 31
0.0000
  0
LINE
  8
29
 10
34.5150
 20
20.9711
 30
0.0000
 11
34.7356
 21
20.9711
 31
0.0000
  0
LINE
  8
29
 10
34.7356
 20
20.9711
 30
0.0000
 11
34.9561
 21
20.7505
 31
0.0000
  0
LINE
  8
29
 10
34.9561
 20
20.7505
 30
0.0000
 11
34.9561
 21
20.0889
 31
0.0000
  0
LINE
  8
29
 10
34.2945
 20
20.0889
 30
0.0000
 11
34.2945
 21
20.7505
 31
0.0000
  0
LINE
  8
29
 10
34.2945
 20
21.4700
 30
0.0000
 11
34.2945
 21
22.3522
 31
0.0000
  0
LINE
  8
29
 10
33.8534
 20
22.8511
 30
0.0000
 11
33.6328
 21
23.0716
 31
0.0000
  0
LINE
  8
29
 10
33.6328
 20
23.0716
 30
0.0000
 11
33.6328
 21
23.5127
 31
0.0000
  0
LINE
  8
29
 10
33.6328
 20
23.5127
 30
0.0000
 11
33.8534
 21
23.7333
 31
0.0000
  0
LINE
  8
29
 10
33.8534
 20
23.7333
 30
0.0000
 11
34.0739
 21
23.7333
 31
0.0000
  0
LINE
  8
29
 10
34.0739
 20
23.7333
 30
0.0000
 11
34.2945
 21
23.5127
 31
0.0000
  0
LINE
  8
29
 10
34.2945
 20
23.5127
 30
0.0000
 11
34.2945
 21
23.2922
 31
0.0000
  0
LINE
  8
29
 10
34.2945
 20
23.5127
 30
0.0000
 11
34.5150
 21
23.7333
 31
0.0000
  0
LINE
  8
29
 10
34.5150
 20
23.7333
 30
0.0000
 11
34.7356
 21
23.7333
 31
0.0000
  0
LINE
  8
29
 10
34.7356
 20
23.7333
 30
0.0000
 11
34.9561
 21
23.5127
 31
0.0000
  0
LINE
  8
29
 10
34.9561
 20
23.5127
 30
0.0000
 11
34.9561
 21
23.0716
 31
0.0000
  0
LINE
  8
29
 10
34.9561
 20
23.0716
 30
0.0000
 11
34.7356
 21
22.8511
 31
0.0000
  0
LINE
  8
29
 10
34.7356
 20
24.2322
 30
0.0000
 11
33.8534
 21
24.2322
 31
0.0000
  0
LINE
  8
29
 10
33.8534
 20
24.2322
 30
0.0000
 11
33.6328
 21
24.4527
 31
0.0000
  0
LINE
  8
29
 10
33.6328
 20
24.4527
 30
0.0000
 11
33.6328
 21
24.8938
 31
0.0000
  0
LINE
  8
29
 10
33.6328
 20
24.8938
 30
0.0000
 11
33.8534
 21
25.1144
 31
0.0000
  0
LINE
  8
29
 10
33.8534
 20
25.1144
 30
0.0000
 11
34.7356
 21
25.1144
 31
0.0000
  0
LINE
  8
29
 10
34.7356
 20
25.1144
 30
0.0000
 11
34.9561
 21
24.8938
 31
0.0000
  0
LINE
  8
29
 10
34.9561
 20
24.8938
 30
0.0000
 11
34.9561
 21
24.4527
 31
0.0000
  0
LINE
  8
29
 10
34.9561
 20
24.4527
 30
0.0000
 11
34.7356
 21
24.2322
 31
0.0000
  0
LINE
  8
29
 10
34.7356
 20
24.2322
 30
0.0000
 11
33.8534
 21
25.1144
 31
0.0000
  0
LINE
  8
29
 10
37.4961
 20
8.2389
 30
0.0000
 11
36.1728
 21
8.2389
 31
0.0000
  0
LINE
  8
29
 10
36.1728
 20
8.2389
 30
0.0000
 11
36.1728
 21
8.9005
 31
0.0000
  0
LINE
  8
29
 10
36.1728
 20
8.9005
 30
0.0000
 11
36.3934
 21
9.1211
 31
0.0000
  0
LINE
  8
29
 10
36.3934
 20
9.1211
 30
0.0000
 11
36.6139
 21
9.1211
 31
0.0000
  0
LINE
  8
29
 10
36.6139
 20
9.1211
 30
0.0000
 11
36.8345
 21
8.9005
 31
0.0000
  0
LINE
  8
29
 10
36.8345
 20
8.9005
 30
0.0000
 11
37.0550
 21
9.1211
 31
0.0000
  0
LINE
  8
29
 10
37.0550
 20
9.1211
 30
0.0000
 11
37.2756
 21
9.1211
 31
0.0000
  0
LINE
  8
29
 10
37.2756
 20
9.1211
 30
0.0000
 11
37.4961
 21
8.9005
 31
0.0000
  0
LINE
  8
29
 10
37.4961
 20
8.9005
 30
0.0000
 11
37.4961
 21
8.2389
 31
0.0000
  0
LINE
  8
29
 10
36.8345
 20
8.2389
 30
0.0000
 11
36.8345
 21
8.9005
 31
0.0000
  0
LINE
  8
29
 10
36.8345
 20
9.6200
 30
0.0000
 11
36.8345
 21
10.5022
 31
0.0000
  0
LINE
  8
29
 10
36.3934
 20
11.0011
 30
0.0000
 11
36.1728
 21
11.2216
 31
0.0000
  0
LINE
  8
29
 10
36.1728
 20
11.2216
 30
0.0000
 11
36.1728
 21
11.6627
 31
0.0000
  0
LINE
  8
29
 10
36.1728
 20
11.6627
 30
0.0000
 11
36.3934
 21
11.8833
 31
0.0000
  0
LINE
  8
29
 10
36.3934
 20
11.8833
 30
0.0000
 11
36.6139
 21
11.8833
 31
0.0000
  0
LINE
  8
29
 10
36.6139
 20
11.8833
 30
0.0000
 11
36.8345
 21
11.6627
 31
0.0000
  0
LINE
  8
29
 10
36.8345
 20
11.6627
 30
0.0000
 11
36.8345
 21
11.4422
 31
0.0000
  0
LINE
  8
29
 10
36.8345
 20
11.6627
 30
0.0000
 11
37.0550
 21
11.8833
 31
0.0000
  0
LINE
  8
29
 10
37.0550
 20
11.8833
 30
0.0000
 11
37.2756
 21
11.8833
 31
0.0000
  0
LINE
  8
29
 10
37.2756
 20
11.8833
 30
0.0000
 11
37.4961
 21
11.6627
 31
0.0000
  0
LINE
  8
29
 10
37.4961
 20
11.6627
 30
0.0000
 11
37.4961
 21
11.2216
 31
0.0000
  0
LINE
  8
29
 10
37.4961
 20
11.2216
 30
0.0000
 11
37.2756
 21
11.0011
 31
0.0000
  0
LINE
  8
29
 10
36.6139
 20
12.3822
 30
0.0000
 11
36.1728
 21
12.8233
 31
0.0000
  0
LINE
  8
29
 10
36.1728
 20
12.8233
 30
0.0000
 11
37.4961
 21
12.8233
 31
0.0000
  0
LINE
  8
29
 10
37.4961
 20
12.3822
 30
0.0000
 11
37.4961
 21
13.2644
 31
0.0000
  0
LINE
  8
29
 10
40.0361
 20
8.2389
 30
0.0000
 11
38.7128
 21
8.2389
 31
0.0000
  0
LINE
  8
29
 10
38.7128
 20
8.2389
 30
0.0000
 11
38.7128
 21
8.9005
 31
0.0000
  0
LINE
  8
29
 10
38.7128
 20
8.9005
 30
0.0000
 11
38.9334
 21
9.1211
 31
0.0000
  0
LINE
  8
29
 10
38.9334
 20
9.1211
 30
0.0000
 11
39.1539
 21
9.1211
 31
0.0000
  0
LINE
  8
29
 10
39.1539
 20
9.1211
 30
0.0000
 11
39.3745
 21
8.9005
 31
0.0000
  0
LINE
  8
29
 10
39.3745
 20
8.9005
 30
0.0000
 11
39.5950
 21
9.1211
 31
0.0000
  0
LINE
  8
29
 10
39.5950
 20
9.1211
 30
0.0000
 11
39.8156
 21
9.1211
 31
0.0000
  0
LINE
  8
29
 10
39.8156
 20
9.1211
 30
0.0000
 11
40.0361
 21
8.9005
 31
0.0000
  0
LINE
  8
29
 10
40.0361
 20
8.9005
 30
0.0000
 11
40.0361
 21
8.2389
 31
0.0000
  0
LINE
  8
29
 10
39.3745
 20
8.2389
 30
0.0000
 11
39.3745
 21
8.9005
 31
0.0000
  0
LINE
  8
29
 10
39.3745
 20
9.6200
 30
0.0000
 11
39.3745
 21
10.5022
 31
0.0000
  0
LINE
  8
29
 10
38.9334
 20
11.0011
 30
0.0000
 11
38.7128
 21
11.2216
 31
0.0000
  0
LINE
  8
29
 10
38.7128
 20
11.2216
 30
0.0000
 11
38.7128
 21
11.6627
 31
0.0000
  0
LINE
  8
29
 10
38.7128
 20
11.6627
 30
0.0000
 11
38.9334
 21
11.8833
 31
0.0000
  0
LINE
  8
29
 10
38.9334
 20
11.8833
 30
0.0000
 11
39.1539
 21
11.8833
 31
0.0000
  0
LINE
  8
29
 10
39.1539
 20
11.8833
 30
0.0000
 11
39.3745
 21
11.6627
 31
0.0000
  0
LINE
  8
29
 10
39.3745
 20
11.6627
 30
0.0000
 11
39.3745
 21
11.4422
 31
0.0000
  0
LINE
  8
29
 10
39.3745
 20
11.6627
 30
0.0000
 11
39.5950
 21
11.8833
 31
0.0000
  0
LINE
  8
29
 10
39.5950
 20
11.8833
 30
0.0000
 11
39.8156
 21
11.8833
 31
0.0000
  0
LINE
  8
29
 10
39.8156
 20
11.8833
 30
0.0000
 11
40.0361
 21
11.6627
 31
0.0000
  0
LINE
  8
29
 10
40.0361
 20
11.6627
 30
0.0000
 11
40.0361
 21
11.2216
 31
0.0000
  0
LINE
  8
29
 10
40.0361
 20
11.2216
 30
0.0000
 11
39.8156
 21
11.0011
 31
0.0000
  0
LINE
  8
29
 10
40.0361
 20
13.2644
 30
0.0000
 11
40.0361
 21
12.3822
 31
0.0000
  0
LINE
  8
29
 10
40.0361
 20
12.3822
 30
0.0000
 11
39.1539
 21
13.2644
 31
0.0000
  0
LINE
  8
29
 10
39.1539
 20
13.2644
 30
0.0000
 11
38.9334
 21
13.2644
 31
0.0000
  0
LINE
  8
29
 10
38.9334
 20
13.2644
 30
0.0000
 11
38.7128
 21
13.0438
 31
0.0000
  0
LINE
  8
29
 10
38.7128
 20
13.0438
 30
0.0000
 11
38.7128
 21
12.6027
 31
0.0000
  0
LINE
  8
29
 10
38.7128
 20
12.6027
 30
0.0000
 11
38.9334
 21
12.3822
 31
0.0000
  0
LINE
  8
29
 10
-36.1639
 20
9.6389
 30
0.0000
 11
-37.4872
 21
9.6389
 31
0.0000
  0
LINE
  8
29
 10
-37.4872
 20
9.6389
 30
0.0000
 11
-37.4872
 21
10.3005
 31
0.0000
  0
LINE
  8
29
 10
-37.4872
 20
10.3005
 30
0.0000
 11
-37.2666
 21
10.5211
 31
0.0000
  0
LINE
  8
29
 10
-37.2666
 20
10.5211
 30
0.0000
 11
-37.0461
 21
10.5211
 31
0.0000
  0
LINE
  8
29
 10
-37.0461
 20
10.5211
 30
0.0000
 11
-36.8255
 21
10.3005
 31
0.0000
  0
LINE
  8
29
 10
-36.8255
 20
10.3005
 30
0.0000
 11
-36.6050
 21
10.5211
 31
0.0000
  0
LINE
  8
29
 10
-36.6050
 20
10.5211
 30
0.0000
 11
-36.3844
 21
10.5211
 31
0.0000
  0
LINE
  8
29
 10
-36.3844
 20
10.5211
 30
0.0000
 11
-36.1639
 21
10.3005
 31
0.0000
  0
LINE
  8
29
 10
-36.1639
 20
10.3005
 30
0.0000
 11
-36.1639
 21
9.6389
 31
0.0000
  0
LINE
  8
29
 10
-36.8255
 20
9.6389
 30
0.0000
 11
-36.8255
 21
10.3005
 31
0.0000
  0
LINE
  8
29
 10
-36.8255
 20
11.0200
 30
0.0000
 11
-36.8255
 21
11.9022
 31
0.0000
  0
LINE
  8
29
 10
-36.1639
 20
13.2833
 30
0.0000
 11
-36.1639
 21
12.4011
 31
0.0000
  0
LINE
  8
29
 10
-36.1639
 20
12.4011
 30
0.0000
 11
-37.0461
 21
13.2833
 31
0.0000
  0
LINE
  8
29
 10
-37.0461
 20
13.2833
 30
0.0000
 11
-37.2666
 21
13.2833
 31
0.0000
  0
LINE
  8
29
 10
-37.2666
 20
13.2833
 30
0.0000
 11
-37.4872
 21
13.0627
 31
0.0000
  0
LINE
  8
29
 10
-37.4872
 20
13.0627
 30
0.0000
 11
-37.4872
 21
12.6216
 31
0.0000
  0
LINE
  8
29
 10
-37.4872
 20
12.6216
 30
0.0000
 11
-37.2666
 21
12.4011
 31
0.0000
  0
LINE
  8
29
 10
-38.7039
 20
9.6389
 30
0.0000
 11
-40.0272
 21
9.6389
 31
0.0000
  0
LINE
  8
29
 10
-40.0272
 20
9.6389
 30
0.0000
 11
-40.0272
 21
10.3005
 31
0.0000
  0
LINE
  8
29
 10
-40.0272
 20
10.3005
 30
0.0000
 11
-39.8066
 21
10.5211
 31
0.0000
  0
LINE
  8
29
 10
-39.8066
 20
10.5211
 30
0.0000
 11
-39.5861
 21
10.5211
 31
0.0000
  0
LINE
  8
29
 10
-39.5861
 20
10.5211
 30
0.0000
 11
-39.3655
 21
10.3005
 31
0.0000
  0
LINE
  8
29
 10
-39.3655
 20
10.3005
 30
0.0000
 11
-39.1450
 21
10.5211
 31
0.0000
  0
LINE
  8
29
 10
-39.1450
 20
10.5211
 30
0.0000
 11
-38.9244
 21
10.5211
 31
0.0000
  0
LINE
  8
29
 10
-38.9244
 20
10.5211
 30
0.0000
 11
-38.7039
 21
10.3005
 31
0.0000
  0
LINE
  8
29
 10
-38.7039
 20
10.3005
 30
0.0000
 11
-38.7039
 21
9.6389
 31
0.0000
  0
LINE
  8
29
 10
-39.3655
 20
9.6389
 30
0.0000
 11
-39.3655
 21
10.3005
 31
0.0000
  0
LINE
  8
29
 10
-39.3655
 20
11.0200
 30
0.0000
 11
-39.3655
 21
11.9022
 31
0.0000
  0
LINE
  8
29
 10
-39.5861
 20
12.4011
 30
0.0000
 11
-40.0272
 21
12.8422
 31
0.0000
  0
LINE
  8
29
 10
-40.0272
 20
12.8422
 30
0.0000
 11
-38.7039
 21
12.8422
 31
0.0000
  0
LINE
  8
29
 10
-38.7039
 20
12.4011
 30
0.0000
 11
-38.7039
 21
13.2833
 31
0.0000
  0
LINE
  8
29
 10
-33.6239
 20
-25.1111
 30
0.0000
 11
-34.9472
 21
-25.1111
 31
0.0000
  0
LINE
  8
29
 10
-34.9472
 20
-25.1111
 30
0.0000
 11
-34.9472
 21
-24.4495
 31
0.0000
  0
LINE
  8
29
 10
-34.9472
 20
-24.4495
 30
0.0000
 11
-34.7266
 21
-24.2289
 31
0.0000
  0
LINE
  8
29
 10
-34.7266
 20
-24.2289
 30
0.0000
 11
-34.5061
 21
-24.2289
 31
0.0000
  0
LINE
  8
29
 10
-34.5061
 20
-24.2289
 30
0.0000
 11
-34.2855
 21
-24.4495
 31
0.0000
  0
LINE
  8
29
 10
-34.2855
 20
-24.4495
 30
0.0000
 11
-34.0650
 21
-24.2289
 31
0.0000
  0
LINE
  8
29
 10
-34.0650
 20
-24.2289
 30
0.0000
 11
-33.8444
 21
-24.2289
 31
0.0000
  0
LINE
  8
29
 10
-33.8444
 20
-24.2289
 30
0.0000
 11
-33.6239
 21
-24.4495
 31
0.0000
  0
LINE
  8
29
 10
-33.6239
 20
-24.4495
 30
0.0000
 11
-33.6239
 21
-25.1111
 31
0.0000
  0
LINE
  8
29
 10
-34.2855
 20
-25.1111
 30
0.0000
 11
-34.2855
 21
-24.4495
 31
0.0000
  0
LINE
  8
29
 10
-34.2855
 20
-23.7300
 30
0.0000
 11
-34.2855
 21
-22.8478
 31
0.0000
  0
LINE
  8
29
 10
-34.7266
 20
-22.3489
 30
0.0000
 11
-34.9472
 21
-22.1284
 31
0.0000
  0
LINE
  8
29
 10
-34.9472
 20
-22.1284
 30
0.0000
 11
-34.9472
 21
-21.6873
 31
0.0000
  0
LINE
  8
29
 10
-34.9472
 20
-21.6873
 30
0.0000
 11
-34.7266
 21
-21.4667
 31
0.0000
  0
LINE
  8
29
 10
-34.7266
 20
-21.4667
 30
0.0000
 11
-34.5061
 21
-21.4667
 31
0.0000
  0
LINE
  8
29
 10
-34.5061
 20
-21.4667
 30
0.0000
 11
-34.2855
 21
-21.6873
 31
0.0000
  0
LINE
  8
29
 10
-34.2855
 20
-21.6873
 30
0.0000
 11
-34.2855
 21
-21.9078
 31
0.0000
  0
LINE
  8
29
 10
-34.2855
 20
-21.6873
 30
0.0000
 11
-34.0650
 21
-21.4667
 31
0.0000
  0
LINE
  8
29
 10
-34.0650
 20
-21.4667
 30
0.0000
 11
-33.8444
 21
-21.4667
 31
0.0000
  0
LINE
  8
29
 10
-33.8444
 20
-21.4667
 30
0.0000
 11
-33.6239
 21
-21.6873
 31
0.0000
  0
LINE
  8
29
 10
-33.6239
 20
-21.6873
 30
0.0000
 11
-33.6239
 21
-22.1284
 31
0.0000
  0
LINE
  8
29
 10
-33.6239
 20
-22.1284
 30
0.0000
 11
-33.8444
 21
-22.3489
 31
0.0000
  0
LINE
  8
29
 10
-34.9472
 20
-20.0856
 30
0.0000
 11
-34.9472
 21
-20.9678
 31
0.0000
  0
LINE
  8
29
 10
-34.9472
 20
-20.9678
 30
0.0000
 11
-34.2855
 21
-20.9678
 31
0.0000
  0
LINE
  8
29
 10
-34.2855
 20
-20.9678
 30
0.0000
 11
-34.5061
 21
-20.5267
 31
0.0000
  0
LINE
  8
29
 10
-34.5061
 20
-20.5267
 30
0.0000
 11
-34.5061
 21
-20.3062
 31
0.0000
  0
LINE
  8
29
 10
-34.5061
 20
-20.3062
 30
0.0000
 11
-34.2855
 21
-20.0856
 31
0.0000
  0
LINE
  8
29
 10
-34.2855
 20
-20.0856
 30
0.0000
 11
-33.8444
 21
-20.0856
 31
0.0000
  0
LINE
  8
29
 10
-33.8444
 20
-20.0856
 30
0.0000
 11
-33.6239
 21
-20.3062
 31
0.0000
  0
LINE
  8
29
 10
-33.6239
 20
-20.3062
 30
0.0000
 11
-33.6239
 21
-20.7473
 31
0.0000
  0
LINE
  8
29
 10
-33.6239
 20
-20.7473
 30
0.0000
 11
-33.8444
 21
-20.9678
 31
0.0000
  0
LINE
  8
29
 10
-36.1639
 20
-13.1611
 30
0.0000
 11
-37.4872
 21
-13.1611
 31
0.0000
  0
LINE
  8
29
 10
-37.4872
 20
-13.1611
 30
0.0000
 11
-37.4872
 21
-12.4995
 31
0.0000
  0
LINE
  8
29
 10
-37.4872
 20
-12.4995
 30
0.0000
 11
-37.2666
 21
-12.2789
 31
0.0000
  0
LINE
  8
29
 10
-37.2666
 20
-12.2789
 30
0.0000
 11
-37.0461
 21
-12.2789
 31
0.0000
  0
LINE
  8
29
 10
-37.0461
 20
-12.2789
 30
0.0000
 11
-36.8255
 21
-12.4995
 31
0.0000
  0
LINE
  8
29
 10
-36.8255
 20
-12.4995
 30
0.0000
 11
-36.6050
 21
-12.2789
 31
0.0000
  0
LINE
  8
29
 10
-36.6050
 20
-12.2789
 30
0.0000
 11
-36.3844
 21
-12.2789
 31
0.0000
  0
LINE
  8
29
 10
-36.3844
 20
-12.2789
 30
0.0000
 11
-36.1639
 21
-12.4995
 31
0.0000
  0
LINE
  8
29
 10
-36.1639
 20
-12.4995
 30
0.0000
 11
-36.1639
 21
-13.1611
 31
0.0000
  0
LINE
  8
29
 10
-36.8255
 20
-13.1611
 30
0.0000
 11
-36.8255
 21
-12.4995
 31
0.0000
  0
LINE
  8
29
 10
-36.8255
 20
-11.7800
 30
0.0000
 11
-36.8255
 21
-10.8978
 31
0.0000
  0
LINE
  8
29
 10
-37.2666
 20
-10.3989
 30
0.0000
 11
-37.4872
 21
-10.1784
 31
0.0000
  0
LINE
  8
29
 10
-37.4872
 20
-10.1784
 30
0.0000
 11
-37.4872
 21
-9.7373
 31
0.0000
  0
LINE
  8
29
 10
-37.4872
 20
-9.7373
 30
0.0000
 11
-37.2666
 21
-9.5167
 31
0.0000
  0
LINE
  8
29
 10
-37.2666
 20
-9.5167
 30
0.0000
 11
-37.0461
 21
-9.5167
 31
0.0000
  0
LINE
  8
29
 10
-37.0461
 20
-9.5167
 30
0.0000
 11
-36.8255
 21
-9.7373
 31
0.0000
  0
LINE
  8
29
 10
-36.8255
 20
-9.7373
 30
0.0000
 11
-36.8255
 21
-9.9578
 31
0.0000
  0
LINE
  8
29
 10
-36.8255
 20
-9.7373
 30
0.0000
 11
-36.6050
 21
-9.5167
 31
0.0000
  0
LINE
  8
29
 10
-36.6050
 20
-9.5167
 30
0.0000
 11
-36.3844
 21
-9.5167
 31
0.0000
  0
LINE
  8
29
 10
-36.3844
 20
-9.5167
 30
0.0000
 11
-36.1639
 21
-9.7373
 31
0.0000
  0
LINE
  8
29
 10
-36.1639
 20
-9.7373
 30
0.0000
 11
-36.1639
 21
-10.1784
 31
0.0000
  0
LINE
  8
29
 10
-36.1639
 20
-10.1784
 30
0.0000
 11
-36.3844
 21
-10.3989
 31
0.0000
  0
LINE
  8
29
 10
-36.1639
 20
-8.3562
 30
0.0000
 11
-37.4872
 21
-8.3562
 31
0.0000
  0
LINE
  8
29
 10
-37.4872
 20
-8.3562
 30
0.0000
 11
-36.8255
 21
-9.0178
 31
0.0000
  0
LINE
  8
29
 10
-36.8255
 20
-9.0178
 30
0.0000
 11
-36.8255
 21
-8.1356
 31
0.0000
  0
LINE
  8
29
 10
-38.7039
 20
-13.1611
 30
0.0000
 11
-40.0272
 21
-13.1611
 31
0.0000
  0
LINE
  8
29
 10
-40.0272
 20
-13.1611
 30
0.0000
 11
-40.0272
 21
-12.4995
 31
0.0000
  0
LINE
  8
29
 10
-40.0272
 20
-12.4995
 30
0.0000
 11
-39.8066
 21
-12.2789
 31
0.0000
  0
LINE
  8
29
 10
-39.8066
 20
-12.2789
 30
0.0000
 11
-39.5861
 21
-12.2789
 31
0.0000
  0
LINE
  8
29
 10
-39.5861
 20
-12.2789
 30
0.0000
 11
-39.3655
 21
-12.4995
 31
0.0000
  0
LINE
  8
29
 10
-39.3655
 20
-12.4995
 30
0.0000
 11
-39.1450
 21
-12.2789
 31
0.0000
  0
LINE
  8
29
 10
-39.1450
 20
-12.2789
 30
0.0000
 11
-38.9244
 21
-12.2789
 31
0.0000
  0
LINE
  8
29
 10
-38.9244
 20
-12.2789
 30
0.0000
 11
-38.7039
 21
-12.4995
 31
0.0000
  0
LINE
  8
29
 10
-38.7039
 20
-12.4995
 30
0.0000
 11
-38.7039
 21
-13.1611
 31
0.0000
  0
LINE
  8
29
 10
-39.3655
 20
-13.1611
 30
0.0000
 11
-39.3655
 21
-12.4995
 31
0.0000
  0
LINE
  8
29
 10
-39.3655
 20
-11.7800
 30
0.0000
 11
-39.3655
 21
-10.8978
 31
0.0000
  0
LINE
  8
29
 10
-39.8066
 20
-10.3989
 30
0.0000
 11
-40.0272
 21
-10.1784
 31
0.0000
  0
LINE
  8
29
 10
-40.0272
 20
-10.1784
 30
0.0000
 11
-40.0272
 21
-9.7373
 31
0.0000
  0
LINE
  8
29
 10
-40.0272
 20
-9.7373
 30
0.0000
 11
-39.8066
 21
-9.5167
 31
0.0000
  0
LINE
  8
29
 10
-39.8066
 20
-9.5167
 30
0.0000
 11
-39.5861
 21
-9.5167
 31
0.0000
  0
LINE
  8
29
 10
-39.5861
 20
-9.5167
 30
0.0000
 11
-39.3655
 21
-9.7373
 31
0.0000
  0
LINE
  8
29
 10
-39.3655
 20
-9.7373
 30
0.0000
 11
-39.3655
 21
-9.9578
 31
0.0000
  0
LINE
  8
29
 10
-39.3655
 20
-9.7373
 30
0.0000
 11
-39.1450
 21
-9.5167
 31
0.0000
  0
LINE
  8
29
 10
-39.1450
 20
-9.5167
 30
0.0000
 11
-38.9244
 21
-9.5167
 31
0.0000
  0
LINE
  8
29
 10
-38.9244
 20
-9.5167
 30
0.0000
 11
-38.7039
 21
-9.7373
 31
0.0000
  0
LINE
  8
29
 10
-38.7039
 20
-9.7373
 30
0.0000
 11
-38.7039
 21
-10.1784
 31
0.0000
  0
LINE
  8
29
 10
-38.7039
 20
-10.1784
 30
0.0000
 11
-38.9244
 21
-10.3989
 31
0.0000
  0
LINE
  8
29
 10
-39.8066
 20
-9.0178
 30
0.0000
 11
-40.0272
 21
-8.7973
 31
0.0000
  0
LINE
  8
29
 10
-40.0272
 20
-8.7973
 30
0.0000
 11
-40.0272
 21
-8.3562
 31
0.0000
  0
LINE
  8
29
 10
-40.0272
 20
-8.3562
 30
0.0000
 11
-39.8066
 21
-8.1356
 31
0.0000
  0
LINE
  8
29
 10
-39.8066
 20
-8.1356
 30
0.0000
 11
-39.5861
 21
-8.1356
 31
0.0000
  0
LINE
  8
29
 10
-39.5861
 20
-8.1356
 30
0.0000
 11
-39.3655
 21
-8.3562
 31
0.0000
  0
LINE
  8
29
 10
-39.3655
 20
-8.3562
 30
0.0000
 11
-39.3655
 21
-8.5767
 31
0.0000
  0
LINE
  8
29
 10
-39.3655
 20
-8.3562
 30
0.0000
 11
-39.1450
 21
-8.1356
 31
0.0000
  0
LINE
  8
29
 10
-39.1450
 20
-8.1356
 30
0.0000
 11
-38.9244
 21
-8.1356
 31
0.0000
  0
LINE
  8
29
 10
-38.9244
 20
-8.1356
 30
0.0000
 11
-38.7039
 21
-8.3562
 31
0.0000
  0
LINE
  8
29
 10
-38.7039
 20
-8.3562
 30
0.0000
 11
-38.7039
 21
-8.7973
 31
0.0000
  0
LINE
  8
29
 10
-38.7039
 20
-8.7973
 30
0.0000
 11
-38.9244
 21
-9.0178
 31
0.0000
  0
LINE
  8
29
 10
-28.5439
 20
-25.1111
 30
0.0000
 11
-29.8672
 21
-25.1111
 31
0.0000
  0
LINE
  8
29
 10
-29.8672
 20
-25.1111
 30
0.0000
 11
-29.8672
 21
-24.4495
 31
0.0000
  0
LINE
  8
29
 10
-29.8672
 20
-24.4495
 30
0.0000
 11
-29.6466
 21
-24.2289
 31
0.0000
  0
LINE
  8
29
 10
-29.6466
 20
-24.2289
 30
0.0000
 11
-29.4261
 21
-24.2289
 31
0.0000
  0
LINE
  8
29
 10
-29.4261
 20
-24.2289
 30
0.0000
 11
-29.2055
 21
-24.4495
 31
0.0000
  0
LINE
  8
29
 10
-29.2055
 20
-24.4495
 30
0.0000
 11
-28.9850
 21
-24.2289
 31
0.0000
  0
LINE
  8
29
 10
-28.9850
 20
-24.2289
 30
0.0000
 11
-28.7644
 21
-24.2289
 31
0.0000
  0
LINE
  8
29
 10
-28.7644
 20
-24.2289
 30
0.0000
 11
-28.5439
 21
-24.4495
 31
0.0000
  0
LINE
  8
29
 10
-28.5439
 20
-24.4495
 30
0.0000
 11
-28.5439
 21
-25.1111
 31
0.0000
  0
LINE
  8
29
 10
-29.2055
 20
-25.1111
 30
0.0000
 11
-29.2055
 21
-24.4495
 31
0.0000
  0
LINE
  8
29
 10
-29.2055
 20
-23.7300
 30
0.0000
 11
-29.2055
 21
-22.8478
 31
0.0000
  0
LINE
  8
29
 10
-29.6466
 20
-22.3489
 30
0.0000
 11
-29.8672
 21
-22.1284
 31
0.0000
  0
LINE
  8
29
 10
-29.8672
 20
-22.1284
 30
0.0000
 11
-29.8672
 21
-21.6873
 31
0.0000
  0
LINE
  8
29
 10
-29.8672
 20
-21.6873
 30
0.0000
 11
-29.6466
 21
-21.4667
 31
0.0000
  0
LINE
  8
29
 10
-29.6466
 20
-21.4667
 30
0.0000
 11
-29.4261
 21
-21.4667
 31
0.0000
  0
LINE
  8
29
 10
-29.4261
 20
-21.4667
 30
0.0000
 11
-29.2055
 21
-21.6873
 31
0.0000
  0
LINE
  8
29
 10
-29.2055
 20
-21.6873
 30
0.0000
 11
-29.2055
 21
-21.9078
 31
0.0000
  0
LINE
  8
29
 10
-29.2055
 20
-21.6873
 30
0.0000
 11
-28.9850
 21
-21.4667
 31
0.0000
  0
LINE
  8
29
 10
-28.9850
 20
-21.4667
 30
0.0000
 11
-28.7644
 21
-21.4667
 31
0.0000
  0
LINE
  8
29
 10
-28.7644
 20
-21.4667
 30
0.0000
 11
-28.5439
 21
-21.6873
 31
0.0000
  0
LINE
  8
29
 10
-28.5439
 20
-21.6873
 30
0.0000
 11
-28.5439
 21
-22.1284
 31
0.0000
  0
LINE
  8
29
 10
-28.5439
 20
-22.1284
 30
0.0000
 11
-28.7644
 21
-22.3489
 31
0.0000
  0
LINE
  8
29
 10
-29.8672
 20
-20.9678
 30
0.0000
 11
-29.8672
 21
-20.0856
 31
0.0000
  0
LINE
  8
29
 10
-29.8672
 20
-20.0856
 30
0.0000
 11
-29.6466
 21
-20.0856
 31
0.0000
  0
LINE
  8
29
 10
-29.6466
 20
-20.0856
 30
0.0000
 11
-28.7644
 21
-20.9678
 31
0.0000
  0
LINE
  8
29
 10
-28.7644
 20
-20.9678
 30
0.0000
 11
-28.5439
 21
-20.9678
 31
0.0000
  0
LINE
  8
29
 10
-26.0039
 20
-25.1111
 30
0.0000
 11
-27.3272
 21
-25.1111
 31
0.0000
  0
LINE
  8
29
 10
-27.3272
 20
-25.1111
 30
0.0000
 11
-27.3272
 21
-24.4495
 31
0.0000
  0
LINE
  8
29
 10
-27.3272
 20
-24.4495
 30
0.0000
 11
-27.1066
 21
-24.2289
 31
0.0000
  0
LINE
  8
29
 10
-27.1066
 20
-24.2289
 30
0.0000
 11
-26.8861
 21
-24.2289
 31
0.0000
  0
LINE
  8
29
 10
-26.8861
 20
-24.2289
 30
0.0000
 11
-26.6655
 21
-24.4495
 31
0.0000
  0
LINE
  8
29
 10
-26.6655
 20
-24.4495
 30
0.0000
 11
-26.4450
 21
-24.2289
 31
0.0000
  0
LINE
  8
29
 10
-26.4450
 20
-24.2289
 30
0.0000
 11
-26.2244
 21
-24.2289
 31
0.0000
  0
LINE
  8
29
 10
-26.2244
 20
-24.2289
 30
0.0000
 11
-26.0039
 21
-24.4495
 31
0.0000
  0
LINE
  8
29
 10
-26.0039
 20
-24.4495
 30
0.0000
 11
-26.0039
 21
-25.1111
 31
0.0000
  0
LINE
  8
29
 10
-26.6655
 20
-25.1111
 30
0.0000
 11
-26.6655
 21
-24.4495
 31
0.0000
  0
LINE
  8
29
 10
-26.6655
 20
-23.7300
 30
0.0000
 11
-26.6655
 21
-22.8478
 31
0.0000
  0
LINE
  8
29
 10
-27.1066
 20
-22.3489
 30
0.0000
 11
-27.3272
 21
-22.1284
 31
0.0000
  0
LINE
  8
29
 10
-27.3272
 20
-22.1284
 30
0.0000
 11
-27.3272
 21
-21.6873
 31
0.0000
  0
LINE
  8
29
 10
-27.3272
 20
-21.6873
 30
0.0000
 11
-27.1066
 21
-21.4667
 31
0.0000
  0
LINE
  8
29
 10
-27.1066
 20
-21.4667
 30
0.0000
 11
-26.8861
 21
-21.4667
 31
0.0000
  0
LINE
  8
29
 10
-26.8861
 20
-21.4667
 30
0.0000
 11
-26.6655
 21
-21.6873
 31
0.0000
  0
LINE
  8
29
 10
-26.6655
 20
-21.6873
 30
0.0000
 11
-26.6655
 21
-21.9078
 31
0.0000
  0
LINE
  8
29
 10
-26.6655
 20
-21.6873
 30
0.0000
 11
-26.4450
 21
-21.4667
 31
0.0000
  0
LINE
  8
29
 10
-26.4450
 20
-21.4667
 30
0.0000
 11
-26.2244
 21
-21.4667
 31
0.0000
  0
LINE
  8
29
 10
-26.2244
 20
-21.4667
 30
0.0000
 11
-26.0039
 21
-21.6873
 31
0.0000
  0
LINE
  8
29
 10
-26.0039
 20
-21.6873
 30
0.0000
 11
-26.0039
 21
-22.1284
 31
0.0000
  0
LINE
  8
29
 10
-26.0039
 20
-22.1284
 30
0.0000
 11
-26.2244
 21
-22.3489
 31
0.0000
  0
LINE
  8
29
 10
-27.1066
 20
-20.9678
 30
0.0000
 11
-27.3272
 21
-20.7473
 31
0.0000
  0
LINE
  8
29
 10
-27.3272
 20
-20.7473
 30
0.0000
 11
-27.3272
 21
-20.3062
 31
0.0000
  0
LINE
  8
29
 10
-27.3272
 20
-20.3062
 30
0.0000
 11
-27.1066
 21
-20.0856
 31
0.0000
  0
LINE
  8
29
 10
-27.1066
 20
-20.0856
 30
0.0000
 11
-26.8861
 21
-20.0856
 31
0.0000
  0
LINE
  8
29
 10
-26.8861
 20
-20.0856
 30
0.0000
 11
-26.6655
 21
-20.3062
 31
0.0000
  0
LINE
  8
29
 10
-26.6655
 20
-20.3062
 30
0.0000
 11
-26.4450
 21
-20.0856
 31
0.0000
  0
LINE
  8
29
 10
-26.4450
 20
-20.0856
 30
0.0000
 11
-26.2244
 21
-20.0856
 31
0.0000
  0
LINE
  8
29
 10
-26.2244
 20
-20.0856
 30
0.0000
 11
-26.0039
 21
-20.3062
 31
0.0000
  0
LINE
  8
29
 10
-26.0039
 20
-20.3062
 30
0.0000
 11
-26.0039
 21
-20.7473
 31
0.0000
  0
LINE
  8
29
 10
-26.0039
 20
-20.7473
 30
0.0000
 11
-26.2244
 21
-20.9678
 31
0.0000
  0
LINE
  8
29
 10
-26.2244
 20
-20.9678
 30
0.0000
 11
-26.4450
 21
-20.9678
 31
0.0000
  0
LINE
  8
29
 10
-26.4450
 20
-20.9678
 30
0.0000
 11
-26.6655
 21
-20.7473
 31
0.0000
  0
LINE
  8
29
 10
-26.6655
 20
-20.7473
 30
0.0000
 11
-26.8861
 21
-20.9678
 31
0.0000
  0
LINE
  8
29
 10
-26.8861
 20
-20.9678
 30
0.0000
 11
-27.1066
 21
-20.9678
 31
0.0000
  0
LINE
  8
29
 10
-26.6655
 20
-20.7473
 30
0.0000
 11
-26.6655
 21
-20.3062
 31
0.0000
  0
LINE
  8
29
 10
-23.4639
 20
-25.1111
 30
0.0000
 11
-24.7872
 21
-25.1111
 31
0.0000
  0
LINE
  8
29
 10
-24.7872
 20
-25.1111
 30
0.0000
 11
-24.7872
 21
-24.4495
 31
0.0000
  0
LINE
  8
29
 10
-24.7872
 20
-24.4495
 30
0.0000
 11
-24.5666
 21
-24.2289
 31
0.0000
  0
LINE
  8
29
 10
-24.5666
 20
-24.2289
 30
0.0000
 11
-24.3461
 21
-24.2289
 31
0.0000
  0
LINE
  8
29
 10
-24.3461
 20
-24.2289
 30
0.0000
 11
-24.1255
 21
-24.4495
 31
0.0000
  0
LINE
  8
29
 10
-24.1255
 20
-24.4495
 30
0.0000
 11
-23.9050
 21
-24.2289
 31
0.0000
  0
LINE
  8
29
 10
-23.9050
 20
-24.2289
 30
0.0000
 11
-23.6844
 21
-24.2289
 31
0.0000
  0
LINE
  8
29
 10
-23.6844
 20
-24.2289
 30
0.0000
 11
-23.4639
 21
-24.4495
 31
0.0000
  0
LINE
  8
29
 10
-23.4639
 20
-24.4495
 30
0.0000
 11
-23.4639
 21
-25.1111
 31
0.0000
  0
LINE
  8
29
 10
-24.1255
 20
-25.1111
 30
0.0000
 11
-24.1255
 21
-24.4495
 31
0.0000
  0
LINE
  8
29
 10
-24.1255
 20
-23.7300
 30
0.0000
 11
-24.1255
 21
-22.8478
 31
0.0000
  0
LINE
  8
29
 10
-24.5666
 20
-22.3489
 30
0.0000
 11
-24.7872
 21
-22.1284
 31
0.0000
  0
LINE
  8
29
 10
-24.7872
 20
-22.1284
 30
0.0000
 11
-24.7872
 21
-21.6873
 31
0.0000
  0
LINE
  8
29
 10
-24.7872
 20
-21.6873
 30
0.0000
 11
-24.5666
 21
-21.4667
 31
0.0000
  0
LINE
  8
29
 10
-24.5666
 20
-21.4667
 30
0.0000
 11
-24.3461
 21
-21.4667
 31
0.0000
  0
LINE
  8
29
 10
-24.3461
 20
-21.4667
 30
0.0000
 11
-24.1255
 21
-21.6873
 31
0.0000
  0
LINE
  8
29
 10
-24.1255
 20
-21.6873
 30
0.0000
 11
-24.1255
 21
-21.9078
 31
0.0000
  0
LINE
  8
29
 10
-24.1255
 20
-21.6873
 30
0.0000
 11
-23.9050
 21
-21.4667
 31
0.0000
  0
LINE
  8
29
 10
-23.9050
 20
-21.4667
 30
0.0000
 11
-23.6844
 21
-21.4667
 31
0.0000
  0
LINE
  8
29
 10
-23.6844
 20
-21.4667
 30
0.0000
 11
-23.4639
 21
-21.6873
 31
0.0000
  0
LINE
  8
29
 10
-23.4639
 20
-21.6873
 30
0.0000
 11
-23.4639
 21
-22.1284
 31
0.0000
  0
LINE
  8
29
 10
-23.4639
 20
-22.1284
 30
0.0000
 11
-23.6844
 21
-22.3489
 31
0.0000
  0
LINE
  8
29
 10
-23.6844
 20
-20.9678
 30
0.0000
 11
-23.4639
 21
-20.7473
 31
0.0000
  0
LINE
  8
29
 10
-23.4639
 20
-20.7473
 30
0.0000
 11
-23.4639
 21
-20.3062
 31
0.0000
  0
LINE
  8
29
 10
-23.4639
 20
-20.3062
 30
0.0000
 11
-23.6844
 21
-20.0856
 31
0.0000
  0
LINE
  8
29
 10
-23.6844
 20
-20.0856
 30
0.0000
 11
-24.5666
 21
-20.0856
 31
0.0000
  0
LINE
  8
29
 10
-24.5666
 20
-20.0856
 30
0.0000
 11
-24.7872
 21
-20.3062
 31
0.0000
  0
LINE
  8
29
 10
-24.7872
 20
-20.3062
 30
0.0000
 11
-24.7872
 21
-20.7473
 31
0.0000
  0
LINE
  8
29
 10
-24.7872
 20
-20.7473
 30
0.0000
 11
-24.5666
 21
-20.9678
 31
0.0000
  0
LINE
  8
29
 10
-24.5666
 20
-20.9678
 30
0.0000
 11
-24.3461
 21
-20.9678
 31
0.0000
  0
LINE
  8
29
 10
-24.3461
 20
-20.9678
 30
0.0000
 11
-24.1255
 21
-20.7473
 31
0.0000
  0
LINE
  8
29
 10
-24.1255
 20
-20.7473
 30
0.0000
 11
-24.1255
 21
-20.0856
 31
0.0000
  0
LINE
  8
29
 10
-20.9239
 20
-25.1111
 30
0.0000
 11
-22.2472
 21
-25.1111
 31
0.0000
  0
LINE
  8
29
 10
-22.2472
 20
-25.1111
 30
0.0000
 11
-22.2472
 21
-24.4495
 31
0.0000
  0
LINE
  8
29
 10
-22.2472
 20
-24.4495
 30
0.0000
 11
-22.0266
 21
-24.2289
 31
0.0000
  0
LINE
  8
29
 10
-22.0266
 20
-24.2289
 30
0.0000
 11
-21.8061
 21
-24.2289
 31
0.0000
  0
LINE
  8
29
 10
-21.8061
 20
-24.2289
 30
0.0000
 11
-21.5855
 21
-24.4495
 31
0.0000
  0
LINE
  8
29
 10
-21.5855
 20
-24.4495
 30
0.0000
 11
-21.3650
 21
-24.2289
 31
0.0000
  0
LINE
  8
29
 10
-21.3650
 20
-24.2289
 30
0.0000
 11
-21.1444
 21
-24.2289
 31
0.0000
  0
LINE
  8
29
 10
-21.1444
 20
-24.2289
 30
0.0000
 11
-20.9239
 21
-24.4495
 31
0.0000
  0
LINE
  8
29
 10
-20.9239
 20
-24.4495
 30
0.0000
 11
-20.9239
 21
-25.1111
 31
0.0000
  0
LINE
  8
29
 10
-21.5855
 20
-25.1111
 30
0.0000
 11
-21.5855
 21
-24.4495
 31
0.0000
  0
LINE
  8
29
 10
-21.5855
 20
-23.7300
 30
0.0000
 11
-21.5855
 21
-22.8478
 31
0.0000
  0
LINE
  8
29
 10
-20.9239
 20
-21.6873
 30
0.0000
 11
-22.2472
 21
-21.6873
 31
0.0000
  0
LINE
  8
29
 10
-22.2472
 20
-21.6873
 30
0.0000
 11
-21.5855
 21
-22.3489
 31
0.0000
  0
LINE
  8
29
 10
-21.5855
 20
-22.3489
 30
0.0000
 11
-21.5855
 21
-21.4667
 31
0.0000
  0
LINE
  8
29
 10
-21.1444
 20
-20.9678
 30
0.0000
 11
-22.0266
 21
-20.9678
 31
0.0000
  0
LINE
  8
29
 10
-22.0266
 20
-20.9678
 30
0.0000
 11
-22.2472
 21
-20.7473
 31
0.0000
  0
LINE
  8
29
 10
-22.2472
 20
-20.7473
 30
0.0000
 11
-22.2472
 21
-20.3062
 31
0.0000
  0
LINE
  8
29
 10
-22.2472
 20
-20.3062
 30
0.0000
 11
-22.0266
 21
-20.0856
 31
0.0000
  0
LINE
  8
29
 10
-22.0266
 20
-20.0856
 30
0.0000
 11
-21.1444
 21
-20.0856
 31
0.0000
  0
LINE
  8
29
 10
-21.1444
 20
-20.0856
 30
0.0000
 11
-20.9239
 21
-20.3062
 31
0.0000
  0
LINE
  8
29
 10
-20.9239
 20
-20.3062
 30
0.0000
 11
-20.9239
 21
-20.7473
 31
0.0000
  0
LINE
  8
29
 10
-20.9239
 20
-20.7473
 30
0.0000
 11
-21.1444
 21
-20.9678
 31
0.0000
  0
LINE
  8
29
 10
-21.1444
 20
-20.9678
 30
0.0000
 11
-22.0266
 21
-20.0856
 31
0.0000
  0
LINE
  8
29
 10
-18.3839
 20
-25.1111
 30
0.0000
 11
-19.7072
 21
-25.1111
 31
0.0000
  0
LINE
  8
29
 10
-19.7072
 20
-25.1111
 30
0.0000
 11
-19.7072
 21
-24.4495
 31
0.0000
  0
LINE
  8
29
 10
-19.7072
 20
-24.4495
 30
0.0000
 11
-19.4866
 21
-24.2289
 31
0.0000
  0
LINE
  8
29
 10
-19.4866
 20
-24.2289
 30
0.0000
 11
-19.2661
 21
-24.2289
 31
0.0000
  0
LINE
  8
29
 10
-19.2661
 20
-24.2289
 30
0.0000
 11
-19.0455
 21
-24.4495
 31
0.0000
  0
LINE
  8
29
 10
-19.0455
 20
-24.4495
 30
0.0000
 11
-18.8250
 21
-24.2289
 31
0.0000
  0
LINE
  8
29
 10
-18.8250
 20
-24.2289
 30
0.0000
 11
-18.6044
 21
-24.2289
 31
0.0000
  0
LINE
  8
29
 10
-18.6044
 20
-24.2289
 30
0.0000
 11
-18.3839
 21
-24.4495
 31
0.0000
  0
LINE
  8
29
 10
-18.3839
 20
-24.4495
 30
0.0000
 11
-18.3839
 21
-25.1111
 31
0.0000
  0
LINE
  8
29
 10
-19.0455
 20
-25.1111
 30
0.0000
 11
-19.0455
 21
-24.4495
 31
0.0000
  0
LINE
  8
29
 10
-19.0455
 20
-23.7300
 30
0.0000
 11
-19.0455
 21
-22.8478
 31
0.0000
  0
LINE
  8
29
 10
-18.3839
 20
-21.6873
 30
0.0000
 11
-19.7072
 21
-21.6873
 31
0.0000
  0
LINE
  8
29
 10
-19.7072
 20
-21.6873
 30
0.0000
 11
-19.0455
 21
-22.3489
 31
0.0000
  0
LINE
  8
29
 10
-19.0455
 20
-22.3489
 30
0.0000
 11
-19.0455
 21
-21.4667
 31
0.0000
  0
LINE
  8
29
 10
-19.2661
 20
-20.9678
 30
0.0000
 11
-19.7072
 21
-20.5267
 31
0.0000
  0
LINE
  8
29
 10
-19.7072
 20
-20.5267
 30
0.0000
 11
-18.3839
 21
-20.5267
 31
0.0000
  0
LINE
  8
29
 10
-18.3839
 20
-20.9678
 30
0.0000
 11
-18.3839
 21
-20.0856
 31
0.0000
  0
LINE
  8
29
 10
-15.8439
 20
-25.1111
 30
0.0000
 11
-17.1672
 21
-25.1111
 31
0.0000
  0
LINE
  8
29
 10
-17.1672
 20
-25.1111
 30
0.0000
 11
-17.1672
 21
-24.4495
 31
0.0000
  0
LINE
  8
29
 10
-17.1672
 20
-24.4495
 30
0.0000
 11
-16.9466
 21
-24.2289
 31
0.0000
  0
LINE
  8
29
 10
-16.9466
 20
-24.2289
 30
0.0000
 11
-16.7261
 21
-24.2289
 31
0.0000
  0
LINE
  8
29
 10
-16.7261
 20
-24.2289
 30
0.0000
 11
-16.5055
 21
-24.4495
 31
0.0000
  0
LINE
  8
29
 10
-16.5055
 20
-24.4495
 30
0.0000
 11
-16.2850
 21
-24.2289
 31
0.0000
  0
LINE
  8
29
 10
-16.2850
 20
-24.2289
 30
0.0000
 11
-16.0644
 21
-24.2289
 31
0.0000
  0
LINE
  8
29
 10
-16.0644
 20
-24.2289
 30
0.0000
 11
-15.8439
 21
-24.4495
 31
0.0000
  0
LINE
  8
29
 10
-15.8439
 20
-24.4495
 30
0.0000
 11
-15.8439
 21
-25.1111
 31
0.0000
  0
LINE
  8
29
 10
-16.5055
 20
-25.1111
 30
0.0000
 11
-16.5055
 21
-24.4495
 31
0.0000
  0
LINE
  8
29
 10
-16.5055
 20
-23.7300
 30
0.0000
 11
-16.5055
 21
-22.8478
 31
0.0000
  0
LINE
  8
29
 10
-15.8439
 20
-21.6873
 30
0.0000
 11
-17.1672
 21
-21.6873
 31
0.0000
  0
LINE
  8
29
 10
-17.1672
 20
-21.6873
 30
0.0000
 11
-16.5055
 21
-22.3489
 31
0.0000
  0
LINE
  8
29
 10
-16.5055
 20
-22.3489
 30
0.0000
 11
-16.5055
 21
-21.4667
 31
0.0000
  0
LINE
  8
29
 10
-15.8439
 20
-20.0856
 30
0.0000
 11
-15.8439
 21
-20.9678
 31
0.0000
  0
LINE
  8
29
 10
-15.8439
 20
-20.9678
 30
0.0000
 11
-16.7261
 21
-20.0856
 31
0.0000
  0
LINE
  8
29
 10
-16.7261
 20
-20.0856
 30
0.0000
 11
-16.9466
 21
-20.0856
 31
0.0000
  0
LINE
  8
29
 10
-16.9466
 20
-20.0856
 30
0.0000
 11
-17.1672
 21
-20.3062
 31
0.0000
  0
LINE
  8
29
 10
-17.1672
 20
-20.3062
 30
0.0000
 11
-17.1672
 21
-20.7473
 31
0.0000
  0
LINE
  8
29
 10
-17.1672
 20
-20.7473
 30
0.0000
 11
-16.9466
 21
-20.9678
 31
0.0000
  0
LINE
  8
29
 10
-13.3039
 20
-25.1111
 30
0.0000
 11
-14.6272
 21
-25.1111
 31
0.0000
  0
LINE
  8
29
 10
-14.6272
 20
-25.1111
 30
0.0000
 11
-14.6272
 21
-24.4495
 31
0.0000
  0
LINE
  8
29
 10
-14.6272
 20
-24.4495
 30
0.0000
 11
-14.4066
 21
-24.2289
 31
0.0000
  0
LINE
  8
29
 10
-14.4066
 20
-24.2289
 30
0.0000
 11
-14.1861
 21
-24.2289
 31
0.0000
  0
LINE
  8
29
 10
-14.1861
 20
-24.2289
 30
0.0000
 11
-13.9655
 21
-24.4495
 31
0.0000
  0
LINE
  8
29
 10
-13.9655
 20
-24.4495
 30
0.0000
 11
-13.7450
 21
-24.2289
 31
0.0000
  0
LINE
  8
29
 10
-13.7450
 20
-24.2289
 30
0.0000
 11
-13.5244
 21
-24.2289
 31
0.0000
  0
LINE
  8
29
 10
-13.5244
 20
-24.2289
 30
0.0000
 11
-13.3039
 21
-24.4495
 31
0.0000
  0
LINE
  8
29
 10
-13.3039
 20
-24.4495
 30
0.0000
 11
-13.3039
 21
-25.1111
 31
0.0000
  0
LINE
  8
29
 10
-13.9655
 20
-25.1111
 30
0.0000
 11
-13.9655
 21
-24.4495
 31
0.0000
  0
LINE
  8
29
 10
-13.9655
 20
-23.7300
 30
0.0000
 11
-13.9655
 21
-22.8478
 31
0.0000
  0
LINE
  8
29
 10
-13.3039
 20
-21.6873
 30
0.0000
 11
-14.6272
 21
-21.6873
 31
0.0000
  0
LINE
  8
29
 10
-14.6272
 20
-21.6873
 30
0.0000
 11
-13.9655
 21
-22.3489
 31
0.0000
  0
LINE
  8
29
 10
-13.9655
 20
-22.3489
 30
0.0000
 11
-13.9655
 21
-21.4667
 31
0.0000
  0
LINE
  8
29
 10
-14.4066
 20
-20.9678
 30
0.0000
 11
-14.6272
 21
-20.7473
 31
0.0000
  0
LINE
  8
29
 10
-14.6272
 20
-20.7473
 30
0.0000
 11
-14.6272
 21
-20.3062
 31
0.0000
  0
LINE
  8
29
 10
-14.6272
 20
-20.3062
 30
0.0000
 11
-14.4066
 21
-20.0856
 31
0.0000
  0
LINE
  8
29
 10
-14.4066
 20
-20.0856
 30
0.0000
 11
-14.1861
 21
-20.0856
 31
0.0000
  0
LINE
  8
29
 10
-14.1861
 20
-20.0856
 30
0.0000
 11
-13.9655
 21
-20.3062
 31
0.0000
  0
LINE
  8
29
 10
-13.9655
 20
-20.3062
 30
0.0000
 11
-13.9655
 21
-20.5267
 31
0.0000
  0
LINE
  8
29
 10
-13.9655
 20
-20.3062
 30
0.0000
 11
-13.7450
 21
-20.0856
 31
0.0000
  0
LINE
  8
29
 10
-13.7450
 20
-20.0856
 30
0.0000
 11
-13.5244
 21
-20.0856
 31
0.0000
  0
LINE
  8
29
 10
-13.5244
 20
-20.0856
 30
0.0000
 11
-13.3039
 21
-20.3062
 31
0.0000
  0
LINE
  8
29
 10
-13.3039
 20
-20.3062
 30
0.0000
 11
-13.3039
 21
-20.7473
 31
0.0000
  0
LINE
  8
29
 10
-13.3039
 20
-20.7473
 30
0.0000
 11
-13.5244
 21
-20.9678
 31
0.0000
  0
LINE
  8
29
 10
-10.7639
 20
-25.1111
 30
0.0000
 11
-12.0872
 21
-25.1111
 31
0.0000
  0
LINE
  8
29
 10
-12.0872
 20
-25.1111
 30
0.0000
 11
-12.0872
 21
-24.4495
 31
0.0000
  0
LINE
  8
29
 10
-12.0872
 20
-24.4495
 30
0.0000
 11
-11.8666
 21
-24.2289
 31
0.0000
  0
LINE
  8
29
 10
-11.8666
 20
-24.2289
 30
0.0000
 11
-11.6461
 21
-24.2289
 31
0.0000
  0
LINE
  8
29
 10
-11.6461
 20
-24.2289
 30
0.0000
 11
-11.4255
 21
-24.4495
 31
0.0000
  0
LINE
  8
29
 10
-11.4255
 20
-24.4495
 30
0.0000
 11
-11.2050
 21
-24.2289
 31
0.0000
  0
LINE
  8
29
 10
-11.2050
 20
-24.2289
 30
0.0000
 11
-10.9844
 21
-24.2289
 31
0.0000
  0
LINE
  8
29
 10
-10.9844
 20
-24.2289
 30
0.0000
 11
-10.7639
 21
-24.4495
 31
0.0000
  0
LINE
  8
29
 10
-10.7639
 20
-24.4495
 30
0.0000
 11
-10.7639
 21
-25.1111
 31
0.0000
  0
LINE
  8
29
 10
-11.4255
 20
-25.1111
 30
0.0000
 11
-11.4255
 21
-24.4495
 31
0.0000
  0
LINE
  8
29
 10
-11.4255
 20
-23.7300
 30
0.0000
 11
-11.4255
 21
-22.8478
 31
0.0000
  0
LINE
  8
29
 10
-10.7639
 20
-21.6873
 30
0.0000
 11
-12.0872
 21
-21.6873
 31
0.0000
  0
LINE
  8
29
 10
-12.0872
 20
-21.6873
 30
0.0000
 11
-11.4255
 21
-22.3489
 31
0.0000
  0
LINE
  8
29
 10
-11.4255
 20
-22.3489
 30
0.0000
 11
-11.4255
 21
-21.4667
 31
0.0000
  0
LINE
  8
29
 10
-10.7639
 20
-20.3062
 30
0.0000
 11
-12.0872
 21
-20.3062
 31
0.0000
  0
LINE
  8
29
 10
-12.0872
 20
-20.3062
 30
0.0000
 11
-11.4255
 21
-20.9678
 31
0.0000
  0
LINE
  8
29
 10
-11.4255
 20
-20.9678
 30
0.0000
 11
-11.4255
 21
-20.0856
 31
0.0000
  0
LINE
  8
29
 10
-8.2239
 20
-25.1111
 30
0.0000
 11
-9.5472
 21
-25.1111
 31
0.0000
  0
LINE
  8
29
 10
-9.5472
 20
-25.1111
 30
0.0000
 11
-9.5472
 21
-24.4495
 31
0.0000
  0
LINE
  8
29
 10
-9.5472
 20
-24.4495
 30
0.0000
 11
-9.3266
 21
-24.2289
 31
0.0000
  0
LINE
  8
29
 10
-9.3266
 20
-24.2289
 30
0.0000
 11
-9.1061
 21
-24.2289
 31
0.0000
  0
LINE
  8
29
 10
-9.1061
 20
-24.2289
 30
0.0000
 11
-8.8855
 21
-24.4495
 31
0.0000
  0
LINE
  8
29
 10
-8.8855
 20
-24.4495
 30
0.0000
 11
-8.6650
 21
-24.2289
 31
0.0000
  0
LINE
  8
29
 10
-8.6650
 20
-24.2289
 30
0.0000
 11
-8.4444
 21
-24.2289
 31
0.0000
  0
LINE
  8
29
 10
-8.4444
 20
-24.2289
 30
0.0000
 11
-8.2239
 21
-24.4495
 31
0.0000
  0
LINE
  8
29
 10
-8.2239
 20
-24.4495
 30
0.0000
 11
-8.2239
 21
-25.1111
 31
0.0000
  0
LINE
  8
29
 10
-8.8855
 20
-25.1111
 30
0.0000
 11
-8.8855
 21
-24.4495
 31
0.0000
  0
LINE
  8
29
 10
-8.8855
 20
-23.7300
 30
0.0000
 11
-8.8855
 21
-22.8478
 31
0.0000
  0
LINE
  8
29
 10
-8.2239
 20
-21.6873
 30
0.0000
 11
-9.5472
 21
-21.6873
 31
0.0000
  0
LINE
  8
29
 10
-9.5472
 20
-21.6873
 30
0.0000
 11
-8.8855
 21
-22.3489
 31
0.0000
  0
LINE
  8
29
 10
-8.8855
 20
-22.3489
 30
0.0000
 11
-8.8855
 21
-21.4667
 31
0.0000
  0
LINE
  8
29
 10
-9.5472
 20
-20.0856
 30
0.0000
 11
-9.5472
 21
-20.9678
 31
0.0000
  0
LINE
  8
29
 10
-9.5472
 20
-20.9678
 30
0.0000
 11
-8.8855
 21
-20.9678
 31
0.0000
  0
LINE
  8
29
 10
-8.8855
 20
-20.9678
 30
0.0000
 11
-9.1061
 21
-20.5267
 31
0.0000
  0
LINE
  8
29
 10
-9.1061
 20
-20.5267
 30
0.0000
 11
-9.1061
 21
-20.3062
 31
0.0000
  0
LINE
  8
29
 10
-9.1061
 20
-20.3062
 30
0.0000
 11
-8.8855
 21
-20.0856
 31
0.0000
  0
LINE
  8
29
 10
-8.8855
 20
-20.0856
 30
0.0000
 11
-8.4444
 21
-20.0856
 31
0.0000
  0
LINE
  8
29
 10
-8.4444
 20
-20.0856
 30
0.0000
 11
-8.2239
 21
-20.3062
 31
0.0000
  0
LINE
  8
29
 10
-8.2239
 20
-20.3062
 30
0.0000
 11
-8.2239
 21
-20.7473
 31
0.0000
  0
LINE
  8
29
 10
-8.2239
 20
-20.7473
 30
0.0000
 11
-8.4444
 21
-20.9678
 31
0.0000
  0
LINE
  8
29
 10
-5.6839
 20
-25.1111
 30
0.0000
 11
-7.0072
 21
-25.1111
 31
0.0000
  0
LINE
  8
29
 10
-7.0072
 20
-25.1111
 30
0.0000
 11
-7.0072
 21
-24.4495
 31
0.0000
  0
LINE
  8
29
 10
-7.0072
 20
-24.4495
 30
0.0000
 11
-6.7866
 21
-24.2289
 31
0.0000
  0
LINE
  8
29
 10
-6.7866
 20
-24.2289
 30
0.0000
 11
-6.5661
 21
-24.2289
 31
0.0000
  0
LINE
  8
29
 10
-6.5661
 20
-24.2289
 30
0.0000
 11
-6.3455
 21
-24.4495
 31
0.0000
  0
LINE
  8
29
 10
-6.3455
 20
-24.4495
 30
0.0000
 11
-6.1250
 21
-24.2289
 31
0.0000
  0
LINE
  8
29
 10
-6.1250
 20
-24.2289
 30
0.0000
 11
-5.9044
 21
-24.2289
 31
0.0000
  0
LINE
  8
29
 10
-5.9044
 20
-24.2289
 30
0.0000
 11
-5.6839
 21
-24.4495
 31
0.0000
  0
LINE
  8
29
 10
-5.6839
 20
-24.4495
 30
0.0000
 11
-5.6839
 21
-25.1111
 31
0.0000
  0
LINE
  8
29
 10
-6.3455
 20
-25.1111
 30
0.0000
 11
-6.3455
 21
-24.4495
 31
0.0000
  0
LINE
  8
29
 10
-6.3455
 20
-23.7300
 30
0.0000
 11
-6.3455
 21
-22.8478
 31
0.0000
  0
LINE
  8
29
 10
-5.6839
 20
-21.6873
 30
0.0000
 11
-7.0072
 21
-21.6873
 31
0.0000
  0
LINE
  8
29
 10
-7.0072
 20
-21.6873
 30
0.0000
 11
-6.3455
 21
-22.3489
 31
0.0000
  0
LINE
  8
29
 10
-6.3455
 20
-22.3489
 30
0.0000
 11
-6.3455
 21
-21.4667
 31
0.0000
  0
LINE
  8
29
 10
-7.0072
 20
-20.0856
 30
0.0000
 11
-6.7866
 21
-20.5267
 31
0.0000
  0
LINE
  8
29
 10
-6.7866
 20
-20.5267
 30
0.0000
 11
-6.3455
 21
-20.9678
 31
0.0000
  0
LINE
  8
29
 10
-6.3455
 20
-20.9678
 30
0.0000
 11
-5.9044
 21
-20.9678
 31
0.0000
  0
LINE
  8
29
 10
-5.9044
 20
-20.9678
 30
0.0000
 11
-5.6839
 21
-20.7473
 31
0.0000
  0
LINE
  8
29
 10
-5.6839
 20
-20.7473
 30
0.0000
 11
-5.6839
 21
-20.3062
 31
0.0000
  0
LINE
  8
29
 10
-5.6839
 20
-20.3062
 30
0.0000
 11
-5.9044
 21
-20.0856
 31
0.0000
  0
LINE
  8
29
 10
-5.9044
 20
-20.0856
 30
0.0000
 11
-6.1250
 21
-20.0856
 31
0.0000
  0
LINE
  8
29
 10
-6.1250
 20
-20.0856
 30
0.0000
 11
-6.3455
 21
-20.3062
 31
0.0000
  0
LINE
  8
29
 10
-6.3455
 20
-20.3062
 30
0.0000
 11
-6.3455
 21
-20.9678
 31
0.0000
  0
LINE
  8
29
 10
-3.1439
 20
-25.1111
 30
0.0000
 11
-4.4672
 21
-25.1111
 31
0.0000
  0
LINE
  8
29
 10
-4.4672
 20
-25.1111
 30
0.0000
 11
-4.4672
 21
-24.4495
 31
0.0000
  0
LINE
  8
29
 10
-4.4672
 20
-24.4495
 30
0.0000
 11
-4.2466
 21
-24.2289
 31
0.0000
  0
LINE
  8
29
 10
-4.2466
 20
-24.2289
 30
0.0000
 11
-4.0261
 21
-24.2289
 31
0.0000
  0
LINE
  8
29
 10
-4.0261
 20
-24.2289
 30
0.0000
 11
-3.8055
 21
-24.4495
 31
0.0000
  0
LINE
  8
29
 10
-3.8055
 20
-24.4495
 30
0.0000
 11
-3.5850
 21
-24.2289
 31
0.0000
  0
LINE
  8
29
 10
-3.5850
 20
-24.2289
 30
0.0000
 11
-3.3644
 21
-24.2289
 31
0.0000
  0
LINE
  8
29
 10
-3.3644
 20
-24.2289
 30
0.0000
 11
-3.1439
 21
-24.4495
 31
0.0000
  0
LINE
  8
29
 10
-3.1439
 20
-24.4495
 30
0.0000
 11
-3.1439
 21
-25.1111
 31
0.0000
  0
LINE
  8
29
 10
-3.8055
 20
-25.1111
 30
0.0000
 11
-3.8055
 21
-24.4495
 31
0.0000
  0
LINE
  8
29
 10
-3.8055
 20
-23.7300
 30
0.0000
 11
-3.8055
 21
-22.8478
 31
0.0000
  0
LINE
  8
29
 10
-3.1439
 20
-21.6873
 30
0.0000
 11
-4.4672
 21
-21.6873
 31
0.0000
  0
LINE
  8
29
 10
-4.4672
 20
-21.6873
 30
0.0000
 11
-3.8055
 21
-22.3489
 31
0.0000
  0
LINE
  8
29
 10
-3.8055
 20
-22.3489
 30
0.0000
 11
-3.8055
 21
-21.4667
 31
0.0000
  0
LINE
  8
29
 10
-4.4672
 20
-20.9678
 30
0.0000
 11
-4.4672
 21
-20.0856
 31
0.0000
  0
LINE
  8
29
 10
-4.4672
 20
-20.0856
 30
0.0000
 11
-4.2466
 21
-20.0856
 31
0.0000
  0
LINE
  8
29
 10
-4.2466
 20
-20.0856
 30
0.0000
 11
-3.3644
 21
-20.9678
 31
0.0000
  0
LINE
  8
29
 10
-3.3644
 20
-20.9678
 30
0.0000
 11
-3.1439
 21
-20.9678
 31
0.0000
  0
LINE
  8
29
 10
-0.6039
 20
-25.1111
 30
0.0000
 11
-1.9272
 21
-25.1111
 31
0.0000
  0
LINE
  8
29
 10
-1.9272
 20
-25.1111
 30
0.0000
 11
-1.9272
 21
-24.4495
 31
0.0000
  0
LINE
  8
29
 10
-1.9272
 20
-24.4495
 30
0.0000
 11
-1.7066
 21
-24.2289
 31
0.0000
  0
LINE
  8
29
 10
-1.7066
 20
-24.2289
 30
0.0000
 11
-1.4861
 21
-24.2289
 31
0.0000
  0
LINE
  8
29
 10
-1.4861
 20
-24.2289
 30
0.0000
 11
-1.2655
 21
-24.4495
 31
0.0000
  0
LINE
  8
29
 10
-1.2655
 20
-24.4495
 30
0.0000
 11
-1.0450
 21
-24.2289
 31
0.0000
  0
LINE
  8
29
 10
-1.0450
 20
-24.2289
 30
0.0000
 11
-0.8244
 21
-24.2289
 31
0.0000
  0
LINE
  8
29
 10
-0.8244
 20
-24.2289
 30
0.0000
 11
-0.6039
 21
-24.4495
 31
0.0000
  0
LINE
  8
29
 10
-0.6039
 20
-24.4495
 30
0.0000
 11
-0.6039
 21
-25.1111
 31
0.0000
  0
LINE
  8
29
 10
-1.2655
 20
-25.1111
 30
0.0000
 11
-1.2655
 21
-24.4495
 31
0.0000
  0
LINE
  8
29
 10
-1.2655
 20
-23.7300
 30
0.0000
 11
-1.2655
 21
-22.8478
 31
0.0000
  0
LINE
  8
29
 10
-0.6039
 20
-21.6873
 30
0.0000
 11
-1.9272
 21
-21.6873
 31
0.0000
  0
LINE
  8
29
 10
-1.9272
 20
-21.6873
 30
0.0000
 11
-1.2655
 21
-22.3489
 31
0.0000
  0
LINE
  8
29
 10
-1.2655
 20
-22.3489
 30
0.0000
 11
-1.2655
 21
-21.4667
 31
0.0000
  0
LINE
  8
29
 10
-1.7066
 20
-20.9678
 30
0.0000
 11
-1.9272
 21
-20.7473
 31
0.0000
  0
LINE
  8
29
 10
-1.9272
 20
-20.7473
 30
0.0000
 11
-1.9272
 21
-20.3062
 31
0.0000
  0
LINE
  8
29
 10
-1.9272
 20
-20.3062
 30
0.0000
 11
-1.7066
 21
-20.0856
 31
0.0000
  0
LINE
  8
29
 10
-1.7066
 20
-20.0856
 30
0.0000
 11
-1.4861
 21
-20.0856
 31
0.0000
  0
LINE
  8
29
 10
-1.4861
 20
-20.0856
 30
0.0000
 11
-1.2655
 21
-20.3062
 31
0.0000
  0
LINE
  8
29
 10
-1.2655
 20
-20.3062
 30
0.0000
 11
-1.0450
 21
-20.0856
 31
0.0000
  0
LINE
  8
29
 10
-1.0450
 20
-20.0856
 30
0.0000
 11
-0.8244
 21
-20.0856
 31
0.0000
  0
LINE
  8
29
 10
-0.8244
 20
-20.0856
 30
0.0000
 11
-0.6039
 21
-20.3062
 31
0.0000
  0
LINE
  8
29
 10
-0.6039
 20
-20.3062
 30
0.0000
 11
-0.6039
 21
-20.7473
 31
0.0000
  0
LINE
  8
29
 10
-0.6039
 20
-20.7473
 30
0.0000
 11
-0.8244
 21
-20.9678
 31
0.0000
  0
LINE
  8
29
 10
-0.8244
 20
-20.9678
 30
0.0000
 11
-1.0450
 21
-20.9678
 31
0.0000
  0
LINE
  8
29
 10
-1.0450
 20
-20.9678
 30
0.0000
 11
-1.2655
 21
-20.7473
 31
0.0000
  0
LINE
  8
29
 10
-1.2655
 20
-20.7473
 30
0.0000
 11
-1.4861
 21
-20.9678
 31
0.0000
  0
LINE
  8
29
 10
-1.4861
 20
-20.9678
 30
0.0000
 11
-1.7066
 21
-20.9678
 31
0.0000
  0
LINE
  8
29
 10
-1.2655
 20
-20.7473
 30
0.0000
 11
-1.2655
 21
-20.3062
 31
0.0000
  0
LINE
  8
29
 10
1.9361
 20
-25.1111
 30
0.0000
 11
0.6128
 21
-25.1111
 31
0.0000
  0
LINE
  8
29
 10
0.6128
 20
-25.1111
 30
0.0000
 11
0.6128
 21
-24.4495
 31
0.0000
  0
LINE
  8
29
 10
0.6128
 20
-24.4495
 30
0.0000
 11
0.8334
 21
-24.2289
 31
0.0000
  0
LINE
  8
29
 10
0.8334
 20
-24.2289
 30
0.0000
 11
1.0539
 21
-24.2289
 31
0.0000
  0
LINE
  8
29
 10
1.0539
 20
-24.2289
 30
0.0000
 11
1.2745
 21
-24.4495
 31
0.0000
  0
LINE
  8
29
 10
1.2745
 20
-24.4495
 30
0.0000
 11
1.4950
 21
-24.2289
 31
0.0000
  0
LINE
  8
29
 10
1.4950
 20
-24.2289
 30
0.0000
 11
1.7156
 21
-24.2289
 31
0.0000
  0
LINE
  8
29
 10
1.7156
 20
-24.2289
 30
0.0000
 11
1.9361
 21
-24.4495
 31
0.0000
  0
LINE
  8
29
 10
1.9361
 20
-24.4495
 30
0.0000
 11
1.9361
 21
-25.1111
 31
0.0000
  0
LINE
  8
29
 10
1.2745
 20
-25.1111
 30
0.0000
 11
1.2745
 21
-24.4495
 31
0.0000
  0
LINE
  8
29
 10
1.2745
 20
-23.7300
 30
0.0000
 11
1.2745
 21
-22.8478
 31
0.0000
  0
LINE
  8
29
 10
1.9361
 20
-21.6873
 30
0.0000
 11
0.6128
 21
-21.6873
 31
0.0000
  0
LINE
  8
29
 10
0.6128
 20
-21.6873
 30
0.0000
 11
1.2745
 21
-22.3489
 31
0.0000
  0
LINE
  8
29
 10
1.2745
 20
-22.3489
 30
0.0000
 11
1.2745
 21
-21.4667
 31
0.0000
  0
LINE
  8
29
 10
1.7156
 20
-20.9678
 30
0.0000
 11
1.9361
 21
-20.7473
 31
0.0000
  0
LINE
  8
29
 10
1.9361
 20
-20.7473
 30
0.0000
 11
1.9361
 21
-20.3062
 31
0.0000
  0
LINE
  8
29
 10
1.9361
 20
-20.3062
 30
0.0000
 11
1.7156
 21
-20.0856
 31
0.0000
  0
LINE
  8
29
 10
1.7156
 20
-20.0856
 30
0.0000
 11
0.8334
 21
-20.0856
 31
0.0000
  0
LINE
  8
29
 10
0.8334
 20
-20.0856
 30
0.0000
 11
0.6128
 21
-20.3062
 31
0.0000
  0
LINE
  8
29
 10
0.6128
 20
-20.3062
 30
0.0000
 11
0.6128
 21
-20.7473
 31
0.0000
  0
LINE
  8
29
 10
0.6128
 20
-20.7473
 30
0.0000
 11
0.8334
 21
-20.9678
 31
0.0000
  0
LINE
  8
29
 10
0.8334
 20
-20.9678
 30
0.0000
 11
1.0539
 21
-20.9678
 31
0.0000
  0
LINE
  8
29
 10
1.0539
 20
-20.9678
 30
0.0000
 11
1.2745
 21
-20.7473
 31
0.0000
  0
LINE
  8
29
 10
1.2745
 20
-20.7473
 30
0.0000
 11
1.2745
 21
-20.0856
 31
0.0000
  0
LINE
  8
29
 10
4.4761
 20
-25.1111
 30
0.0000
 11
3.1528
 21
-25.1111
 31
0.0000
  0
LINE
  8
29
 10
3.1528
 20
-25.1111
 30
0.0000
 11
3.1528
 21
-24.4495
 31
0.0000
  0
LINE
  8
29
 10
3.1528
 20
-24.4495
 30
0.0000
 11
3.3734
 21
-24.2289
 31
0.0000
  0
LINE
  8
29
 10
3.3734
 20
-24.2289
 30
0.0000
 11
3.5939
 21
-24.2289
 31
0.0000
  0
LINE
  8
29
 10
3.5939
 20
-24.2289
 30
0.0000
 11
3.8145
 21
-24.4495
 31
0.0000
  0
LINE
  8
29
 10
3.8145
 20
-24.4495
 30
0.0000
 11
4.0350
 21
-24.2289
 31
0.0000
  0
LINE
  8
29
 10
4.0350
 20
-24.2289
 30
0.0000
 11
4.2556
 21
-24.2289
 31
0.0000
  0
LINE
  8
29
 10
4.2556
 20
-24.2289
 30
0.0000
 11
4.4761
 21
-24.4495
 31
0.0000
  0
LINE
  8
29
 10
4.4761
 20
-24.4495
 30
0.0000
 11
4.4761
 21
-25.1111
 31
0.0000
  0
LINE
  8
29
 10
3.8145
 20
-25.1111
 30
0.0000
 11
3.8145
 21
-24.4495
 31
0.0000
  0
LINE
  8
29
 10
3.8145
 20
-23.7300
 30
0.0000
 11
3.8145
 21
-22.8478
 31
0.0000
  0
LINE
  8
29
 10
3.1528
 20
-21.4667
 30
0.0000
 11
3.1528
 21
-22.3489
 31
0.0000
  0
LINE
  8
29
 10
3.1528
 20
-22.3489
 30
0.0000
 11
3.8145
 21
-22.3489
 31
0.0000
  0
LINE
  8
29
 10
3.8145
 20
-22.3489
 30
0.0000
 11
3.5939
 21
-21.9078
 31
0.0000
  0
LINE
  8
29
 10
3.5939
 20
-21.9078
 30
0.0000
 11
3.5939
 21
-21.6873
 31
0.0000
  0
LINE
  8
29
 10
3.5939
 20
-21.6873
 30
0.0000
 11
3.8145
 21
-21.4667
 31
0.0000
  0
LINE
  8
29
 10
3.8145
 20
-21.4667
 30
0.0000
 11
4.2556
 21
-21.4667
 31
0.0000
  0
LINE
  8
29
 10
4.2556
 20
-21.4667
 30
0.0000
 11
4.4761
 21
-21.6873
 31
0.0000
  0
LINE
  8
29
 10
4.4761
 20
-21.6873
 30
0.0000
 11
4.4761
 21
-22.1284
 31
0.0000
  0
LINE
  8
29
 10
4.4761
 20
-22.1284
 30
0.0000
 11
4.2556
 21
-22.3489
 31
0.0000
  0
LINE
  8
29
 10
4.2556
 20
-20.9678
 30
0.0000
 11
3.3734
 21
-20.9678
 31
0.0000
  0
LINE
  8
29
 10
3.3734
 20
-20.9678
 30
0.0000
 11
3.1528
 21
-20.7473
 31
0.0000
  0
LINE
  8
29
 10
3.1528
 20
-20.7473
 30
0.0000
 11
3.1528
 21
-20.3062
 31
0.0000
  0
LINE
  8
29
 10
3.1528
 20
-20.3062
 30
0.0000
 11
3.3734
 21
-20.0856
 31
0.0000
  0
LINE
  8
29
 10
3.3734
 20
-20.0856
 30
0.0000
 11
4.2556
 21
-20.0856
 31
0.0000
  0
LINE
  8
29
 10
4.2556
 20
-20.0856
 30
0.0000
 11
4.4761
 21
-20.3062
 31
0.0000
  0
LINE
  8
29
 10
4.4761
 20
-20.3062
 30
0.0000
 11
4.4761
 21
-20.7473
 31
0.0000
  0
LINE
  8
29
 10
4.4761
 20
-20.7473
 30
0.0000
 11
4.2556
 21
-20.9678
 31
0.0000
  0
LINE
  8
29
 10
4.2556
 20
-20.9678
 30
0.0000
 11
3.3734
 21
-20.0856
 31
0.0000
  0
LINE
  8
29
 10
7.0161
 20
-25.1111
 30
0.0000
 11
5.6928
 21
-25.1111
 31
0.0000
  0
LINE
  8
29
 10
5.6928
 20
-25.1111
 30
0.0000
 11
5.6928
 21
-24.4495
 31
0.0000
  0
LINE
  8
29
 10
5.6928
 20
-24.4495
 30
0.0000
 11
5.9134
 21
-24.2289
 31
0.0000
  0
LINE
  8
29
 10
5.9134
 20
-24.2289
 30
0.0000
 11
6.1339
 21
-24.2289
 31
0.0000
  0
LINE
  8
29
 10
6.1339
 20
-24.2289
 30
0.0000
 11
6.3545
 21
-24.4495
 31
0.0000
  0
LINE
  8
29
 10
6.3545
 20
-24.4495
 30
0.0000
 11
6.5750
 21
-24.2289
 31
0.0000
  0
LINE
  8
29
 10
6.5750
 20
-24.2289
 30
0.0000
 11
6.7956
 21
-24.2289
 31
0.0000
  0
LINE
  8
29
 10
6.7956
 20
-24.2289
 30
0.0000
 11
7.0161
 21
-24.4495
 31
0.0000
  0
LINE
  8
29
 10
7.0161
 20
-24.4495
 30
0.0000
 11
7.0161
 21
-25.1111
 31
0.0000
  0
LINE
  8
29
 10
6.3545
 20
-25.1111
 30
0.0000
 11
6.3545
 21
-24.4495
 31
0.0000
  0
LINE
  8
29
 10
6.3545
 20
-23.7300
 30
0.0000
 11
6.3545
 21
-22.8478
 31
0.0000
  0
LINE
  8
29
 10
5.6928
 20
-21.4667
 30
0.0000
 11
5.6928
 21
-22.3489
 31
0.0000
  0
LINE
  8
29
 10
5.6928
 20
-22.3489
 30
0.0000
 11
6.3545
 21
-22.3489
 31
0.0000
  0
LINE
  8
29
 10
6.3545
 20
-22.3489
 30
0.0000
 11
6.1339
 21
-21.9078
 31
0.0000
  0
LINE
  8
29
 10
6.1339
 20
-21.9078
 30
0.0000
 11
6.1339
 21
-21.6873
 31
0.0000
  0
LINE
  8
29
 10
6.1339
 20
-21.6873
 30
0.0000
 11
6.3545
 21
-21.4667
 31
0.0000
  0
LINE
  8
29
 10
6.3545
 20
-21.4667
 30
0.0000
 11
6.7956
 21
-21.4667
 31
0.0000
  0
LINE
  8
29
 10
6.7956
 20
-21.4667
 30
0.0000
 11
7.0161
 21
-21.6873
 31
0.0000
  0
LINE
  8
29
 10
7.0161
 20
-21.6873
 30
0.0000
 11
7.0161
 21
-22.1284
 31
0.0000
  0
LINE
  8
29
 10
7.0161
 20
-22.1284
 30
0.0000
 11
6.7956
 21
-22.3489
 31
0.0000
  0
LINE
  8
29
 10
6.1339
 20
-20.9678
 30
0.0000
 11
5.6928
 21
-20.5267
 31
0.0000
  0
LINE
  8
29
 10
5.6928
 20
-20.5267
 30
0.0000
 11
7.0161
 21
-20.5267
 31
0.0000
  0
LINE
  8
29
 10
7.0161
 20
-20.9678
 30
0.0000
 11
7.0161
 21
-20.0856
 31
0.0000
  0
LINE
  8
29
 10
9.5561
 20
-25.1111
 30
0.0000
 11
8.2328
 21
-25.1111
 31
0.0000
  0
LINE
  8
29
 10
8.2328
 20
-25.1111
 30
0.0000
 11
8.2328
 21
-24.4495
 31
0.0000
  0
LINE
  8
29
 10
8.2328
 20
-24.4495
 30
0.0000
 11
8.4534
 21
-24.2289
 31
0.0000
  0
LINE
  8
29
 10
8.4534
 20
-24.2289
 30
0.0000
 11
8.6739
 21
-24.2289
 31
0.0000
  0
LINE
  8
29
 10
8.6739
 20
-24.2289
 30
0.0000
 11
8.8945
 21
-24.4495
 31
0.0000
  0
LINE
  8
29
 10
8.8945
 20
-24.4495
 30
0.0000
 11
9.1150
 21
-24.2289
 31
0.0000
  0
LINE
  8
29
 10
9.1150
 20
-24.2289
 30
0.0000
 11
9.3356
 21
-24.2289
 31
0.0000
  0
LINE
  8
29
 10
9.3356
 20
-24.2289
 30
0.0000
 11
9.5561
 21
-24.4495
 31
0.0000
  0
LINE
  8
29
 10
9.5561
 20
-24.4495
 30
0.0000
 11
9.5561
 21
-25.1111
 31
0.0000
  0
LINE
  8
29
 10
8.8945
 20
-25.1111
 30
0.0000
 11
8.8945
 21
-24.4495
 31
0.0000
  0
LINE
  8
29
 10
8.8945
 20
-23.7300
 30
0.0000
 11
8.8945
 21
-22.8478
 31
0.0000
  0
LINE
  8
29
 10
8.2328
 20
-21.4667
 30
0.0000
 11
8.2328
 21
-22.3489
 31
0.0000
  0
LINE
  8
29
 10
8.2328
 20
-22.3489
 30
0.0000
 11
8.8945
 21
-22.3489
 31
0.0000
  0
LINE
  8
29
 10
8.8945
 20
-22.3489
 30
0.0000
 11
8.6739
 21
-21.9078
 31
0.0000
  0
LINE
  8
29
 10
8.6739
 20
-21.9078
 30
0.0000
 11
8.6739
 21
-21.6873
 31
0.0000
  0
LINE
  8
29
 10
8.6739
 20
-21.6873
 30
0.0000
 11
8.8945
 21
-21.4667
 31
0.0000
  0
LINE
  8
29
 10
8.8945
 20
-21.4667
 30
0.0000
 11
9.3356
 21
-21.4667
 31
0.0000
  0
LINE
  8
29
 10
9.3356
 20
-21.4667
 30
0.0000
 11
9.5561
 21
-21.6873
 31
0.0000
  0
LINE
  8
29
 10
9.5561
 20
-21.6873
 30
0.0000
 11
9.5561
 21
-22.1284
 31
0.0000
  0
LINE
  8
29
 10
9.5561
 20
-22.1284
 30
0.0000
 11
9.3356
 21
-22.3489
 31
0.0000
  0
LINE
  8
29
 10
9.5561
 20
-20.0856
 30
0.0000
 11
9.5561
 21
-20.9678
 31
0.0000
  0
LINE
  8
29
 10
9.5561
 20
-20.9678
 30
0.0000
 11
8.6739
 21
-20.0856
 31
0.0000
  0
LINE
  8
29
 10
8.6739
 20
-20.0856
 30
0.0000
 11
8.4534
 21
-20.0856
 31
0.0000
  0
LINE
  8
29
 10
8.4534
 20
-20.0856
 30
0.0000
 11
8.2328
 21
-20.3062
 31
0.0000
  0
LINE
  8
29
 10
8.2328
 20
-20.3062
 30
0.0000
 11
8.2328
 21
-20.7473
 31
0.0000
  0
LINE
  8
29
 10
8.2328
 20
-20.7473
 30
0.0000
 11
8.4534
 21
-20.9678
 31
0.0000
  0
LINE
  8
29
 10
12.0961
 20
-25.1111
 30
0.0000
 11
10.7728
 21
-25.1111
 31
0.0000
  0
LINE
  8
29
 10
10.7728
 20
-25.1111
 30
0.0000
 11
10.7728
 21
-24.4495
 31
0.0000
  0
LINE
  8
29
 10
10.7728
 20
-24.4495
 30
0.0000
 11
10.9934
 21
-24.2289
 31
0.0000
  0
LINE
  8
29
 10
10.9934
 20
-24.2289
 30
0.0000
 11
11.2139
 21
-24.2289
 31
0.0000
  0
LINE
  8
29
 10
11.2139
 20
-24.2289
 30
0.0000
 11
11.4345
 21
-24.4495
 31
0.0000
  0
LINE
  8
29
 10
11.4345
 20
-24.4495
 30
0.0000
 11
11.6550
 21
-24.2289
 31
0.0000
  0
LINE
  8
29
 10
11.6550
 20
-24.2289
 30
0.0000
 11
11.8756
 21
-24.2289
 31
0.0000
  0
LINE
  8
29
 10
11.8756
 20
-24.2289
 30
0.0000
 11
12.0961
 21
-24.4495
 31
0.0000
  0
LINE
  8
29
 10
12.0961
 20
-24.4495
 30
0.0000
 11
12.0961
 21
-25.1111
 31
0.0000
  0
LINE
  8
29
 10
11.4345
 20
-25.1111
 30
0.0000
 11
11.4345
 21
-24.4495
 31
0.0000
  0
LINE
  8
29
 10
11.4345
 20
-23.7300
 30
0.0000
 11
11.4345
 21
-22.8478
 31
0.0000
  0
LINE
  8
29
 10
10.7728
 20
-21.4667
 30
0.0000
 11
10.7728
 21
-22.3489
 31
0.0000
  0
LINE
  8
29
 10
10.7728
 20
-22.3489
 30
0.0000
 11
11.4345
 21
-22.3489
 31
0.0000
  0
LINE
  8
29
 10
11.4345
 20
-22.3489
 30
0.0000
 11
11.2139
 21
-21.9078
 31
0.0000
  0
LINE
  8
29
 10
11.2139
 20
-21.9078
 30
0.0000
 11
11.2139
 21
-21.6873
 31
0.0000
  0
LINE
  8
29
 10
11.2139
 20
-21.6873
 30
0.0000
 11
11.4345
 21
-21.4667
 31
0.0000
  0
LINE
  8
29
 10
11.4345
 20
-21.4667
 30
0.0000
 11
11.8756
 21
-21.4667
 31
0.0000
  0
LINE
  8
29
 10
11.8756
 20
-21.4667
 30
0.0000
 11
12.0961
 21
-21.6873
 31
0.0000
  0
LINE
  8
29
 10
12.0961
 20
-21.6873
 30
0.0000
 11
12.0961
 21
-22.1284
 31
0.0000
  0
LINE
  8
29
 10
12.0961
 20
-22.1284
 30
0.0000
 11
11.8756
 21
-22.3489
 31
0.0000
  0
LINE
  8
29
 10
10.9934
 20
-20.9678
 30
0.0000
 11
10.7728
 21
-20.7473
 31
0.0000
  0
LINE
  8
29
 10
10.7728
 20
-20.7473
 30
0.0000
 11
10.7728
 21
-20.3062
 31
0.0000
  0
LINE
  8
29
 10
10.7728
 20
-20.3062
 30
0.0000
 11
10.9934
 21
-20.0856
 31
0.0000
  0
LINE
  8
29
 10
10.9934
 20
-20.0856
 30
0.0000
 11
11.2139
 21
-20.0856
 31
0.0000
  0
LINE
  8
29
 10
11.2139
 20
-20.0856
 30
0.0000
 11
11.4345
 21
-20.3062
 31
0.0000
  0
LINE
  8
29
 10
11.4345
 20
-20.3062
 30
0.0000
 11
11.4345
 21
-20.5267
 31
0.0000
  0
LINE
  8
29
 10
11.4345
 20
-20.3062
 30
0.0000
 11
11.6550
 21
-20.0856
 31
0.0000
  0
LINE
  8
29
 10
11.6550
 20
-20.0856
 30
0.0000
 11
11.8756
 21
-20.0856
 31
0.0000
  0
LINE
  8
29
 10
11.8756
 20
-20.0856
 30
0.0000
 11
12.0961
 21
-20.3062
 31
0.0000
  0
LINE
  8
29
 10
12.0961
 20
-20.3062
 30
0.0000
 11
12.0961
 21
-20.7473
 31
0.0000
  0
LINE
  8
29
 10
12.0961
 20
-20.7473
 30
0.0000
 11
11.8756
 21
-20.9678
 31
0.0000
  0
LINE
  8
29
 10
14.6361
 20
-25.1111
 30
0.0000
 11
13.3128
 21
-25.1111
 31
0.0000
  0
LINE
  8
29
 10
13.3128
 20
-25.1111
 30
0.0000
 11
13.3128
 21
-24.4495
 31
0.0000
  0
LINE
  8
29
 10
13.3128
 20
-24.4495
 30
0.0000
 11
13.5334
 21
-24.2289
 31
0.0000
  0
LINE
  8
29
 10
13.5334
 20
-24.2289
 30
0.0000
 11
13.7539
 21
-24.2289
 31
0.0000
  0
LINE
  8
29
 10
13.7539
 20
-24.2289
 30
0.0000
 11
13.9745
 21
-24.4495
 31
0.0000
  0
LINE
  8
29
 10
13.9745
 20
-24.4495
 30
0.0000
 11
14.1950
 21
-24.2289
 31
0.0000
  0
LINE
  8
29
 10
14.1950
 20
-24.2289
 30
0.0000
 11
14.4156
 21
-24.2289
 31
0.0000
  0
LINE
  8
29
 10
14.4156
 20
-24.2289
 30
0.0000
 11
14.6361
 21
-24.4495
 31
0.0000
  0
LINE
  8
29
 10
14.6361
 20
-24.4495
 30
0.0000
 11
14.6361
 21
-25.1111
 31
0.0000
  0
LINE
  8
29
 10
13.9745
 20
-25.1111
 30
0.0000
 11
13.9745
 21
-24.4495
 31
0.0000
  0
LINE
  8
29
 10
13.9745
 20
-23.7300
 30
0.0000
 11
13.9745
 21
-22.8478
 31
0.0000
  0
LINE
  8
29
 10
13.3128
 20
-21.4667
 30
0.0000
 11
13.3128
 21
-22.3489
 31
0.0000
  0
LINE
  8
29
 10
13.3128
 20
-22.3489
 30
0.0000
 11
13.9745
 21
-22.3489
 31
0.0000
  0
LINE
  8
29
 10
13.9745
 20
-22.3489
 30
0.0000
 11
13.7539
 21
-21.9078
 31
0.0000
  0
LINE
  8
29
 10
13.7539
 20
-21.9078
 30
0.0000
 11
13.7539
 21
-21.6873
 31
0.0000
  0
LINE
  8
29
 10
13.7539
 20
-21.6873
 30
0.0000
 11
13.9745
 21
-21.4667
 31
0.0000
  0
LINE
  8
29
 10
13.9745
 20
-21.4667
 30
0.0000
 11
14.4156
 21
-21.4667
 31
0.0000
  0
LINE
  8
29
 10
14.4156
 20
-21.4667
 30
0.0000
 11
14.6361
 21
-21.6873
 31
0.0000
  0
LINE
  8
29
 10
14.6361
 20
-21.6873
 30
0.0000
 11
14.6361
 21
-22.1284
 31
0.0000
  0
LINE
  8
29
 10
14.6361
 20
-22.1284
 30
0.0000
 11
14.4156
 21
-22.3489
 31
0.0000
  0
LINE
  8
29
 10
14.6361
 20
-20.3062
 30
0.0000
 11
13.3128
 21
-20.3062
 31
0.0000
  0
LINE
  8
29
 10
13.3128
 20
-20.3062
 30
0.0000
 11
13.9745
 21
-20.9678
 31
0.0000
  0
LINE
  8
29
 10
13.9745
 20
-20.9678
 30
0.0000
 11
13.9745
 21
-20.0856
 31
0.0000
  0
LINE
  8
29
 10
17.1761
 20
-25.1111
 30
0.0000
 11
15.8528
 21
-25.1111
 31
0.0000
  0
LINE
  8
29
 10
15.8528
 20
-25.1111
 30
0.0000
 11
15.8528
 21
-24.4495
 31
0.0000
  0
LINE
  8
29
 10
15.8528
 20
-24.4495
 30
0.0000
 11
16.0734
 21
-24.2289
 31
0.0000
  0
LINE
  8
29
 10
16.0734
 20
-24.2289
 30
0.0000
 11
16.2939
 21
-24.2289
 31
0.0000
  0
LINE
  8
29
 10
16.2939
 20
-24.2289
 30
0.0000
 11
16.5145
 21
-24.4495
 31
0.0000
  0
LINE
  8
29
 10
16.5145
 20
-24.4495
 30
0.0000
 11
16.7350
 21
-24.2289
 31
0.0000
  0
LINE
  8
29
 10
16.7350
 20
-24.2289
 30
0.0000
 11
16.9556
 21
-24.2289
 31
0.0000
  0
LINE
  8
29
 10
16.9556
 20
-24.2289
 30
0.0000
 11
17.1761
 21
-24.4495
 31
0.0000
  0
LINE
  8
29
 10
17.1761
 20
-24.4495
 30
0.0000
 11
17.1761
 21
-25.1111
 31
0.0000
  0
LINE
  8
29
 10
16.5145
 20
-25.1111
 30
0.0000
 11
16.5145
 21
-24.4495
 31
0.0000
  0
LINE
  8
29
 10
16.5145
 20
-23.7300
 30
0.0000
 11
16.5145
 21
-22.8478
 31
0.0000
  0
LINE
  8
29
 10
15.8528
 20
-21.4667
 30
0.0000
 11
15.8528
 21
-22.3489
 31
0.0000
  0
LINE
  8
29
 10
15.8528
 20
-22.3489
 30
0.0000
 11
16.5145
 21
-22.3489
 31
0.0000
  0
LINE
  8
29
 10
16.5145
 20
-22.3489
 30
0.0000
 11
16.2939
 21
-21.9078
 31
0.0000
  0
LINE
  8
29
 10
16.2939
 20
-21.9078
 30
0.0000
 11
16.2939
 21
-21.6873
 31
0.0000
  0
LINE
  8
29
 10
16.2939
 20
-21.6873
 30
0.0000
 11
16.5145
 21
-21.4667
 31
0.0000
  0
LINE
  8
29
 10
16.5145
 20
-21.4667
 30
0.0000
 11
16.9556
 21
-21.4667
 31
0.0000
  0
LINE
  8
29
 10
16.9556
 20
-21.4667
 30
0.0000
 11
17.1761
 21
-21.6873
 31
0.0000
  0
LINE
  8
29
 10
17.1761
 20
-21.6873
 30
0.0000
 11
17.1761
 21
-22.1284
 31
0.0000
  0
LINE
  8
29
 10
17.1761
 20
-22.1284
 30
0.0000
 11
16.9556
 21
-22.3489
 31
0.0000
  0
LINE
  8
29
 10
15.8528
 20
-20.0856
 30
0.0000
 11
15.8528
 21
-20.9678
 31
0.0000
  0
LINE
  8
29
 10
15.8528
 20
-20.9678
 30
0.0000
 11
16.5145
 21
-20.9678
 31
0.0000
  0
LINE
  8
29
 10
16.5145
 20
-20.9678
 30
0.0000
 11
16.2939
 21
-20.5267
 31
0.0000
  0
LINE
  8
29
 10
16.2939
 20
-20.5267
 30
0.0000
 11
16.2939
 21
-20.3062
 31
0.0000
  0
LINE
  8
29
 10
16.2939
 20
-20.3062
 30
0.0000
 11
16.5145
 21
-20.0856
 31
0.0000
  0
LINE
  8
29
 10
16.5145
 20
-20.0856
 30
0.0000
 11
16.9556
 21
-20.0856
 31
0.0000
  0
LINE
  8
29
 10
16.9556
 20
-20.0856
 30
0.0000
 11
17.1761
 21
-20.3062
 31
0.0000
  0
LINE
  8
29
 10
17.1761
 20
-20.3062
 30
0.0000
 11
17.1761
 21
-20.7473
 31
0.0000
  0
LINE
  8
29
 10
17.1761
 20
-20.7473
 30
0.0000
 11
16.9556
 21
-20.9678
 31
0.0000
  0
LINE
  8
29
 10
19.7161
 20
-25.1111
 30
0.0000
 11
18.3928
 21
-25.1111
 31
0.0000
  0
LINE
  8
29
 10
18.3928
 20
-25.1111
 30
0.0000
 11
18.3928
 21
-24.4495
 31
0.0000
  0
LINE
  8
29
 10
18.3928
 20
-24.4495
 30
0.0000
 11
18.6134
 21
-24.2289
 31
0.0000
  0
LINE
  8
29
 10
18.6134
 20
-24.2289
 30
0.0000
 11
18.8339
 21
-24.2289
 31
0.0000
  0
LINE
  8
29
 10
18.8339
 20
-24.2289
 30
0.0000
 11
19.0545
 21
-24.4495
 31
0.0000
  0
LINE
  8
29
 10
19.0545
 20
-24.4495
 30
0.0000
 11
19.2750
 21
-24.2289
 31
0.0000
  0
LINE
  8
29
 10
19.2750
 20
-24.2289
 30
0.0000
 11
19.4956
 21
-24.2289
 31
0.0000
  0
LINE
  8
29
 10
19.4956
 20
-24.2289
 30
0.0000
 11
19.7161
 21
-24.4495
 31
0.0000
  0
LINE
  8
29
 10
19.7161
 20
-24.4495
 30
0.0000
 11
19.7161
 21
-25.1111
 31
0.0000
  0
LINE
  8
29
 10
19.0545
 20
-25.1111
 30
0.0000
 11
19.0545
 21
-24.4495
 31
0.0000
  0
LINE
  8
29
 10
19.0545
 20
-23.7300
 30
0.0000
 11
19.0545
 21
-22.8478
 31
0.0000
  0
LINE
  8
29
 10
18.3928
 20
-21.4667
 30
0.0000
 11
18.3928
 21
-22.3489
 31
0.0000
  0
LINE
  8
29
 10
18.3928
 20
-22.3489
 30
0.0000
 11
19.0545
 21
-22.3489
 31
0.0000
  0
LINE
  8
29
 10
19.0545
 20
-22.3489
 30
0.0000
 11
18.8339
 21
-21.9078
 31
0.0000
  0
LINE
  8
29
 10
18.8339
 20
-21.9078
 30
0.0000
 11
18.8339
 21
-21.6873
 31
0.0000
  0
LINE
  8
29
 10
18.8339
 20
-21.6873
 30
0.0000
 11
19.0545
 21
-21.4667
 31
0.0000
  0
LINE
  8
29
 10
19.0545
 20
-21.4667
 30
0.0000
 11
19.4956
 21
-21.4667
 31
0.0000
  0
LINE
  8
29
 10
19.4956
 20
-21.4667
 30
0.0000
 11
19.7161
 21
-21.6873
 31
0.0000
  0
LINE
  8
29
 10
19.7161
 20
-21.6873
 30
0.0000
 11
19.7161
 21
-22.1284
 31
0.0000
  0
LINE
  8
29
 10
19.7161
 20
-22.1284
 30
0.0000
 11
19.4956
 21
-22.3489
 31
0.0000
  0
LINE
  8
29
 10
18.3928
 20
-20.0856
 30
0.0000
 11
18.6134
 21
-20.5267
 31
0.0000
  0
LINE
  8
29
 10
18.6134
 20
-20.5267
 30
0.0000
 11
19.0545
 21
-20.9678
 31
0.0000
  0
LINE
  8
29
 10
19.0545
 20
-20.9678
 30
0.0000
 11
19.4956
 21
-20.9678
 31
0.0000
  0
LINE
  8
29
 10
19.4956
 20
-20.9678
 30
0.0000
 11
19.7161
 21
-20.7473
 31
0.0000
  0
LINE
  8
29
 10
19.7161
 20
-20.7473
 30
0.0000
 11
19.7161
 21
-20.3062
 31
0.0000
  0
LINE
  8
29
 10
19.7161
 20
-20.3062
 30
0.0000
 11
19.4956
 21
-20.0856
 31
0.0000
  0
LINE
  8
29
 10
19.4956
 20
-20.0856
 30
0.0000
 11
19.2750
 21
-20.0856
 31
0.0000
  0
LINE
  8
29
 10
19.2750
 20
-20.0856
 30
0.0000
 11
19.0545
 21
-20.3062
 31
0.0000
  0
LINE
  8
29
 10
19.0545
 20
-20.3062
 30
0.0000
 11
19.0545
 21
-20.9678
 31
0.0000
  0
LINE
  8
29
 10
22.2561
 20
-25.1111
 30
0.0000
 11
20.9328
 21
-25.1111
 31
0.0000
  0
LINE
  8
29
 10
20.9328
 20
-25.1111
 30
0.0000
 11
20.9328
 21
-24.4495
 31
0.0000
  0
LINE
  8
29
 10
20.9328
 20
-24.4495
 30
0.0000
 11
21.1534
 21
-24.2289
 31
0.0000
  0
LINE
  8
29
 10
21.1534
 20
-24.2289
 30
0.0000
 11
21.3739
 21
-24.2289
 31
0.0000
  0
LINE
  8
29
 10
21.3739
 20
-24.2289
 30
0.0000
 11
21.5945
 21
-24.4495
 31
0.0000
  0
LINE
  8
29
 10
21.5945
 20
-24.4495
 30
0.0000
 11
21.8150
 21
-24.2289
 31
0.0000
  0
LINE
  8
29
 10
21.8150
 20
-24.2289
 30
0.0000
 11
22.0356
 21
-24.2289
 31
0.0000
  0
LINE
  8
29
 10
22.0356
 20
-24.2289
 30
0.0000
 11
22.2561
 21
-24.4495
 31
0.0000
  0
LINE
  8
29
 10
22.2561
 20
-24.4495
 30
0.0000
 11
22.2561
 21
-25.1111
 31
0.0000
  0
LINE
  8
29
 10
21.5945
 20
-25.1111
 30
0.0000
 11
21.5945
 21
-24.4495
 31
0.0000
  0
LINE
  8
29
 10
21.5945
 20
-23.7300
 30
0.0000
 11
21.5945
 21
-22.8478
 31
0.0000
  0
LINE
  8
29
 10
20.9328
 20
-21.4667
 30
0.0000
 11
20.9328
 21
-22.3489
 31
0.0000
  0
LINE
  8
29
 10
20.9328
 20
-22.3489
 30
0.0000
 11
21.5945
 21
-22.3489
 31
0.0000
  0
LINE
  8
29
 10
21.5945
 20
-22.3489
 30
0.0000
 11
21.3739
 21
-21.9078
 31
0.0000
  0
LINE
  8
29
 10
21.3739
 20
-21.9078
 30
0.0000
 11
21.3739
 21
-21.6873
 31
0.0000
  0
LINE
  8
29
 10
21.3739
 20
-21.6873
 30
0.0000
 11
21.5945
 21
-21.4667
 31
0.0000
  0
LINE
  8
29
 10
21.5945
 20
-21.4667
 30
0.0000
 11
22.0356
 21
-21.4667
 31
0.0000
  0
LINE
  8
29
 10
22.0356
 20
-21.4667
 30
0.0000
 11
22.2561
 21
-21.6873
 31
0.0000
  0
LINE
  8
29
 10
22.2561
 20
-21.6873
 30
0.0000
 11
22.2561
 21
-22.1284
 31
0.0000
  0
LINE
  8
29
 10
22.2561
 20
-22.1284
 30
0.0000
 11
22.0356
 21
-22.3489
 31
0.0000
  0
LINE
  8
29
 10
20.9328
 20
-20.9678
 30
0.0000
 11
20.9328
 21
-20.0856
 31
0.0000
  0
LINE
  8
29
 10
20.9328
 20
-20.0856
 30
0.0000
 11
21.1534
 21
-20.0856
 31
0.0000
  0
LINE
  8
29
 10
21.1534
 20
-20.0856
 30
0.0000
 11
22.0356
 21
-20.9678
 31
0.0000
  0
LINE
  8
29
 10
22.0356
 20
-20.9678
 30
0.0000
 11
22.2561
 21
-20.9678
 31
0.0000
  0
LINE
  8
29
 10
24.7961
 20
-25.1111
 30
0.0000
 11
23.4728
 21
-25.1111
 31
0.0000
  0
LINE
  8
29
 10
23.4728
 20
-25.1111
 30
0.0000
 11
23.4728
 21
-24.4495
 31
0.0000
  0
LINE
  8
29
 10
23.4728
 20
-24.4495
 30
0.0000
 11
23.6934
 21
-24.2289
 31
0.0000
  0
LINE
  8
29
 10
23.6934
 20
-24.2289
 30
0.0000
 11
23.9139
 21
-24.2289
 31
0.0000
  0
LINE
  8
29
 10
23.9139
 20
-24.2289
 30
0.0000
 11
24.1345
 21
-24.4495
 31
0.0000
  0
LINE
  8
29
 10
24.1345
 20
-24.4495
 30
0.0000
 11
24.3550
 21
-24.2289
 31
0.0000
  0
LINE
  8
29
 10
24.3550
 20
-24.2289
 30
0.0000
 11
24.5756
 21
-24.2289
 31
0.0000
  0
LINE
  8
29
 10
24.5756
 20
-24.2289
 30
0.0000
 11
24.7961
 21
-24.4495
 31
0.0000
  0
LINE
  8
29
 10
24.7961
 20
-24.4495
 30
0.0000
 11
24.7961
 21
-25.1111
 31
0.0000
  0
LINE
  8
29
 10
24.1345
 20
-25.1111
 30
0.0000
 11
24.1345
 21
-24.4495
 31
0.0000
  0
LINE
  8
29
 10
24.1345
 20
-23.7300
 30
0.0000
 11
24.1345
 21
-22.8478
 31
0.0000
  0
LINE
  8
29
 10
23.4728
 20
-21.4667
 30
0.0000
 11
23.4728
 21
-22.3489
 31
0.0000
  0
LINE
  8
29
 10
23.4728
 20
-22.3489
 30
0.0000
 11
24.1345
 21
-22.3489
 31
0.0000
  0
LINE
  8
29
 10
24.1345
 20
-22.3489
 30
0.0000
 11
23.9139
 21
-21.9078
 31
0.0000
  0
LINE
  8
29
 10
23.9139
 20
-21.9078
 30
0.0000
 11
23.9139
 21
-21.6873
 31
0.0000
  0
LINE
  8
29
 10
23.9139
 20
-21.6873
 30
0.0000
 11
24.1345
 21
-21.4667
 31
0.0000
  0
LINE
  8
29
 10
24.1345
 20
-21.4667
 30
0.0000
 11
24.5756
 21
-21.4667
 31
0.0000
  0
LINE
  8
29
 10
24.5756
 20
-21.4667
 30
0.0000
 11
24.7961
 21
-21.6873
 31
0.0000
  0
LINE
  8
29
 10
24.7961
 20
-21.6873
 30
0.0000
 11
24.7961
 21
-22.1284
 31
0.0000
  0
LINE
  8
29
 10
24.7961
 20
-22.1284
 30
0.0000
 11
24.5756
 21
-22.3489
 31
0.0000
  0
LINE
  8
29
 10
23.6934
 20
-20.9678
 30
0.0000
 11
23.4728
 21
-20.7473
 31
0.0000
  0
LINE
  8
29
 10
23.4728
 20
-20.7473
 30
0.0000
 11
23.4728
 21
-20.3062
 31
0.0000
  0
LINE
  8
29
 10
23.4728
 20
-20.3062
 30
0.0000
 11
23.6934
 21
-20.0856
 31
0.0000
  0
LINE
  8
29
 10
23.6934
 20
-20.0856
 30
0.0000
 11
23.9139
 21
-20.0856
 31
0.0000
  0
LINE
  8
29
 10
23.9139
 20
-20.0856
 30
0.0000
 11
24.1345
 21
-20.3062
 31
0.0000
  0
LINE
  8
29
 10
24.1345
 20
-20.3062
 30
0.0000
 11
24.3550
 21
-20.0856
 31
0.0000
  0
LINE
  8
29
 10
24.3550
 20
-20.0856
 30
0.0000
 11
24.5756
 21
-20.0856
 31
0.0000
  0
LINE
  8
29
 10
24.5756
 20
-20.0856
 30
0.0000
 11
24.7961
 21
-20.3062
 31
0.0000
  0
LINE
  8
29
 10
24.7961
 20
-20.3062
 30
0.0000
 11
24.7961
 21
-20.7473
 31
0.0000
  0
LINE
  8
29
 10
24.7961
 20
-20.7473
 30
0.0000
 11
24.5756
 21
-20.9678
 31
0.0000
  0
LINE
  8
29
 10
24.5756
 20
-20.9678
 30
0.0000
 11
24.3550
 21
-20.9678
 31
0.0000
  0
LINE
  8
29
 10
24.3550
 20
-20.9678
 30
0.0000
 11
24.1345
 21
-20.7473
 31
0.0000
  0
LINE
  8
29
 10
24.1345
 20
-20.7473
 30
0.0000
 11
23.9139
 21
-20.9678
 31
0.0000
  0
LINE
  8
29
 10
23.9139
 20
-20.9678
 30
0.0000
 11
23.6934
 21
-20.9678
 31
0.0000
  0
LINE
  8
29
 10
24.1345
 20
-20.7473
 30
0.0000
 11
24.1345
 21
-20.3062
 31
0.0000
  0
LINE
  8
29
 10
27.3361
 20
-25.1111
 30
0.0000
 11
26.0128
 21
-25.1111
 31
0.0000
  0
LINE
  8
29
 10
26.0128
 20
-25.1111
 30
0.0000
 11
26.0128
 21
-24.4495
 31
0.0000
  0
LINE
  8
29
 10
26.0128
 20
-24.4495
 30
0.0000
 11
26.2334
 21
-24.2289
 31
0.0000
  0
LINE
  8
29
 10
26.2334
 20
-24.2289
 30
0.0000
 11
26.4539
 21
-24.2289
 31
0.0000
  0
LINE
  8
29
 10
26.4539
 20
-24.2289
 30
0.0000
 11
26.6745
 21
-24.4495
 31
0.0000
  0
LINE
  8
29
 10
26.6745
 20
-24.4495
 30
0.0000
 11
26.8950
 21
-24.2289
 31
0.0000
  0
LINE
  8
29
 10
26.8950
 20
-24.2289
 30
0.0000
 11
27.1156
 21
-24.2289
 31
0.0000
  0
LINE
  8
29
 10
27.1156
 20
-24.2289
 30
0.0000
 11
27.3361
 21
-24.4495
 31
0.0000
  0
LINE
  8
29
 10
27.3361
 20
-24.4495
 30
0.0000
 11
27.3361
 21
-25.1111
 31
0.0000
  0
LINE
  8
29
 10
26.6745
 20
-25.1111
 30
0.0000
 11
26.6745
 21
-24.4495
 31
0.0000
  0
LINE
  8
29
 10
26.6745
 20
-23.7300
 30
0.0000
 11
26.6745
 21
-22.8478
 31
0.0000
  0
LINE
  8
29
 10
26.0128
 20
-21.4667
 30
0.0000
 11
26.0128
 21
-22.3489
 31
0.0000
  0
LINE
  8
29
 10
26.0128
 20
-22.3489
 30
0.0000
 11
26.6745
 21
-22.3489
 31
0.0000
  0
LINE
  8
29
 10
26.6745
 20
-22.3489
 30
0.0000
 11
26.4539
 21
-21.9078
 31
0.0000
  0
LINE
  8
29
 10
26.4539
 20
-21.9078
 30
0.0000
 11
26.4539
 21
-21.6873
 31
0.0000
  0
LINE
  8
29
 10
26.4539
 20
-21.6873
 30
0.0000
 11
26.6745
 21
-21.4667
 31
0.0000
  0
LINE
  8
29
 10
26.6745
 20
-21.4667
 30
0.0000
 11
27.1156
 21
-21.4667
 31
0.0000
  0
LINE
  8
29
 10
27.1156
 20
-21.4667
 30
0.0000
 11
27.3361
 21
-21.6873
 31
0.0000
  0
LINE
  8
29
 10
27.3361
 20
-21.6873
 30
0.0000
 11
27.3361
 21
-22.1284
 31
0.0000
  0
LINE
  8
29
 10
27.3361
 20
-22.1284
 30
0.0000
 11
27.1156
 21
-22.3489
 31
0.0000
  0
LINE
  8
29
 10
27.1156
 20
-20.9678
 30
0.0000
 11
27.3361
 21
-20.7473
 31
0.0000
  0
LINE
  8
29
 10
27.3361
 20
-20.7473
 30
0.0000
 11
27.3361
 21
-20.3062
 31
0.0000
  0
LINE
  8
29
 10
27.3361
 20
-20.3062
 30
0.0000
 11
27.1156
 21
-20.0856
 31
0.0000
  0
LINE
  8
29
 10
27.1156
 20
-20.0856
 30
0.0000
 11
26.2334
 21
-20.0856
 31
0.0000
  0
LINE
  8
29
 10
26.2334
 20
-20.0856
 30
0.0000
 11
26.0128
 21
-20.3062
 31
0.0000
  0
LINE
  8
29
 10
26.0128
 20
-20.3062
 30
0.0000
 11
26.0128
 21
-20.7473
 31
0.0000
  0
LINE
  8
29
 10
26.0128
 20
-20.7473
 30
0.0000
 11
26.2334
 21
-20.9678
 31
0.0000
  0
LINE
  8
29
 10
26.2334
 20
-20.9678
 30
0.0000
 11
26.4539
 21
-20.9678
 31
0.0000
  0
LINE
  8
29
 10
26.4539
 20
-20.9678
 30
0.0000
 11
26.6745
 21
-20.7473
 31
0.0000
  0
LINE
  8
29
 10
26.6745
 20
-20.7473
 30
0.0000
 11
26.6745
 21
-20.0856
 31
0.0000
  0
LINE
  8
29
 10
29.8761
 20
-25.1111
 30
0.0000
 11
28.5528
 21
-25.1111
 31
0.0000
  0
LINE
  8
29
 10
28.5528
 20
-25.1111
 30
0.0000
 11
28.5528
 21
-24.4495
 31
0.0000
  0
LINE
  8
29
 10
28.5528
 20
-24.4495
 30
0.0000
 11
28.7734
 21
-24.2289
 31
0.0000
  0
LINE
  8
29
 10
28.7734
 20
-24.2289
 30
0.0000
 11
28.9939
 21
-24.2289
 31
0.0000
  0
LINE
  8
29
 10
28.9939
 20
-24.2289
 30
0.0000
 11
29.2145
 21
-24.4495
 31
0.0000
  0
LINE
  8
29
 10
29.2145
 20
-24.4495
 30
0.0000
 11
29.4350
 21
-24.2289
 31
0.0000
  0
LINE
  8
29
 10
29.4350
 20
-24.2289
 30
0.0000
 11
29.6556
 21
-24.2289
 31
0.0000
  0
LINE
  8
29
 10
29.6556
 20
-24.2289
 30
0.0000
 11
29.8761
 21
-24.4495
 31
0.0000
  0
LINE
  8
29
 10
29.8761
 20
-24.4495
 30
0.0000
 11
29.8761
 21
-25.1111
 31
0.0000
  0
LINE
  8
29
 10
29.2145
 20
-25.1111
 30
0.0000
 11
29.2145
 21
-24.4495
 31
0.0000
  0
LINE
  8
29
 10
29.2145
 20
-23.7300
 30
0.0000
 11
29.2145
 21
-22.8478
 31
0.0000
  0
LINE
  8
29
 10
28.5528
 20
-21.4667
 30
0.0000
 11
28.7734
 21
-21.9078
 31
0.0000
  0
LINE
  8
29
 10
28.7734
 20
-21.9078
 30
0.0000
 11
29.2145
 21
-22.3489
 31
0.0000
  0
LINE
  8
29
 10
29.2145
 20
-22.3489
 30
0.0000
 11
29.6556
 21
-22.3489
 31
0.0000
  0
LINE
  8
29
 10
29.6556
 20
-22.3489
 30
0.0000
 11
29.8761
 21
-22.1284
 31
0.0000
  0
LINE
  8
29
 10
29.8761
 20
-22.1284
 30
0.0000
 11
29.8761
 21
-21.6873
 31
0.0000
  0
LINE
  8
29
 10
29.8761
 20
-21.6873
 30
0.0000
 11
29.6556
 21
-21.4667
 31
0.0000
  0
LINE
  8
29
 10
29.6556
 20
-21.4667
 30
0.0000
 11
29.4350
 21
-21.4667
 31
0.0000
  0
LINE
  8
29
 10
29.4350
 20
-21.4667
 30
0.0000
 11
29.2145
 21
-21.6873
 31
0.0000
  0
LINE
  8
29
 10
29.2145
 20
-21.6873
 30
0.0000
 11
29.2145
 21
-22.3489
 31
0.0000
  0
LINE
  8
29
 10
29.6556
 20
-20.9678
 30
0.0000
 11
28.7734
 21
-20.9678
 31
0.0000
  0
LINE
  8
29
 10
28.7734
 20
-20.9678
 30
0.0000
 11
28.5528
 21
-20.7473
 31
0.0000
  0
LINE
  8
29
 10
28.5528
 20
-20.7473
 30
0.0000
 11
28.5528
 21
-20.3062
 31
0.0000
  0
LINE
  8
29
 10
28.5528
 20
-20.3062
 30
0.0000
 11
28.7734
 21
-20.0856
 31
0.0000
  0
LINE
  8
29
 10
28.7734
 20
-20.0856
 30
0.0000
 11
29.6556
 21
-20.0856
 31
0.0000
  0
LINE
  8
29
 10
29.6556
 20
-20.0856
 30
0.0000
 11
29.8761
 21
-20.3062
 31
0.0000
  0
LINE
  8
29
 10
29.8761
 20
-20.3062
 30
0.0000
 11
29.8761
 21
-20.7473
 31
0.0000
  0
LINE
  8
29
 10
29.8761
 20
-20.7473
 30
0.0000
 11
29.6556
 21
-20.9678
 31
0.0000
  0
LINE
  8
29
 10
29.6556
 20
-20.9678
 30
0.0000
 11
28.7734
 21
-20.0856
 31
0.0000
  0
LINE
  8
29
 10
32.4161
 20
-25.1111
 30
0.0000
 11
31.0928
 21
-25.1111
 31
0.0000
  0
LINE
  8
29
 10
31.0928
 20
-25.1111
 30
0.0000
 11
31.0928
 21
-24.4495
 31
0.0000
  0
LINE
  8
29
 10
31.0928
 20
-24.4495
 30
0.0000
 11
31.3134
 21
-24.2289
 31
0.0000
  0
LINE
  8
29
 10
31.3134
 20
-24.2289
 30
0.0000
 11
31.5339
 21
-24.2289
 31
0.0000
  0
LINE
  8
29
 10
31.5339
 20
-24.2289
 30
0.0000
 11
31.7545
 21
-24.4495
 31
0.0000
  0
LINE
  8
29
 10
31.7545
 20
-24.4495
 30
0.0000
 11
31.9750
 21
-24.2289
 31
0.0000
  0
LINE
  8
29
 10
31.9750
 20
-24.2289
 30
0.0000
 11
32.1956
 21
-24.2289
 31
0.0000
  0
LINE
  8
29
 10
32.1956
 20
-24.2289
 30
0.0000
 11
32.4161
 21
-24.4495
 31
0.0000
  0
LINE
  8
29
 10
32.4161
 20
-24.4495
 30
0.0000
 11
32.4161
 21
-25.1111
 31
0.0000
  0
LINE
  8
29
 10
31.7545
 20
-25.1111
 30
0.0000
 11
31.7545
 21
-24.4495
 31
0.0000
  0
LINE
  8
29
 10
31.7545
 20
-23.7300
 30
0.0000
 11
31.7545
 21
-22.8478
 31
0.0000
  0
LINE
  8
29
 10
31.0928
 20
-21.4667
 30
0.0000
 11
31.3134
 21
-21.9078
 31
0.0000
  0
LINE
  8
29
 10
31.3134
 20
-21.9078
 30
0.0000
 11
31.7545
 21
-22.3489
 31
0.0000
  0
LINE
  8
29
 10
31.7545
 20
-22.3489
 30
0.0000
 11
32.1956
 21
-22.3489
 31
0.0000
  0
LINE
  8
29
 10
32.1956
 20
-22.3489
 30
0.0000
 11
32.4161
 21
-22.1284
 31
0.0000
  0
LINE
  8
29
 10
32.4161
 20
-22.1284
 30
0.0000
 11
32.4161
 21
-21.6873
 31
0.0000
  0
LINE
  8
29
 10
32.4161
 20
-21.6873
 30
0.0000
 11
32.1956
 21
-21.4667
 31
0.0000
  0
LINE
  8
29
 10
32.1956
 20
-21.4667
 30
0.0000
 11
31.9750
 21
-21.4667
 31
0.0000
  0
LINE
  8
29
 10
31.9750
 20
-21.4667
 30
0.0000
 11
31.7545
 21
-21.6873
 31
0.0000
  0
LINE
  8
29
 10
31.7545
 20
-21.6873
 30
0.0000
 11
31.7545
 21
-22.3489
 31
0.0000
  0
LINE
  8
29
 10
31.5339
 20
-20.9678
 30
0.0000
 11
31.0928
 21
-20.5267
 31
0.0000
  0
LINE
  8
29
 10
31.0928
 20
-20.5267
 30
0.0000
 11
32.4161
 21
-20.5267
 31
0.0000
  0
LINE
  8
29
 10
32.4161
 20
-20.9678
 30
0.0000
 11
32.4161
 21
-20.0856
 31
0.0000
  0
LINE
  8
29
 10
34.9561
 20
-25.1111
 30
0.0000
 11
33.6328
 21
-25.1111
 31
0.0000
  0
LINE
  8
29
 10
33.6328
 20
-25.1111
 30
0.0000
 11
33.6328
 21
-24.4495
 31
0.0000
  0
LINE
  8
29
 10
33.6328
 20
-24.4495
 30
0.0000
 11
33.8534
 21
-24.2289
 31
0.0000
  0
LINE
  8
29
 10
33.8534
 20
-24.2289
 30
0.0000
 11
34.0739
 21
-24.2289
 31
0.0000
  0
LINE
  8
29
 10
34.0739
 20
-24.2289
 30
0.0000
 11
34.2945
 21
-24.4495
 31
0.0000
  0
LINE
  8
29
 10
34.2945
 20
-24.4495
 30
0.0000
 11
34.5150
 21
-24.2289
 31
0.0000
  0
LINE
  8
29
 10
34.5150
 20
-24.2289
 30
0.0000
 11
34.7356
 21
-24.2289
 31
0.0000
  0
LINE
  8
29
 10
34.7356
 20
-24.2289
 30
0.0000
 11
34.9561
 21
-24.4495
 31
0.0000
  0
LINE
  8
29
 10
34.9561
 20
-24.4495
 30
0.0000
 11
34.9561
 21
-25.1111
 31
0.0000
  0
LINE
  8
29
 10
34.2945
 20
-25.1111
 30
0.0000
 11
34.2945
 21
-24.4495
 31
0.0000
  0
LINE
  8
29
 10
34.2945
 20
-23.7300
 30
0.0000
 11
34.2945
 21
-22.8478
 31
0.0000
  0
LINE
  8
29
 10
33.6328
 20
-21.4667
 30
0.0000
 11
33.8534
 21
-21.9078
 31
0.0000
  0
LINE
  8
29
 10
33.8534
 20
-21.9078
 30
0.0000
 11
34.2945
 21
-22.3489
 31
0.0000
  0
LINE
  8
29
 10
34.2945
 20
-22.3489
 30
0.0000
 11
34.7356
 21
-22.3489
 31
0.0000
  0
LINE
  8
29
 10
34.7356
 20
-22.3489
 30
0.0000
 11
34.9561
 21
-22.1284
 31
0.0000
  0
LINE
  8
29
 10
34.9561
 20
-22.1284
 30
0.0000
 11
34.9561
 21
-21.6873
 31
0.0000
  0
LINE
  8
29
 10
34.9561
 20
-21.6873
 30
0.0000
 11
34.7356
 21
-21.4667
 31
0.0000
  0
LINE
  8
29
 10
34.7356
 20
-21.4667
 30
0.0000
 11
34.5150
 21
-21.4667
 31
0.0000
  0
LINE
  8
29
 10
34.5150
 20
-21.4667
 30
0.0000
 11
34.2945
 21
-21.6873
 31
0.0000
  0
LINE
  8
29
 10
34.2945
 20
-21.6873
 30
0.0000
 11
34.2945
 21
-22.3489
 31
0.0000
  0
LINE
  8
29
 10
34.9561
 20
-20.0856
 30
0.0000
 11
34.9561
 21
-20.9678
 31
0.0000
  0
LINE
  8
29
 10
34.9561
 20
-20.9678
 30
0.0000
 11
34.0739
 21
-20.0856
 31
0.0000
  0
LINE
  8
29
 10
34.0739
 20
-20.0856
 30
0.0000
 11
33.8534
 21
-20.0856
 31
0.0000
  0
LINE
  8
29
 10
33.8534
 20
-20.0856
 30
0.0000
 11
33.6328
 21
-20.3062
 31
0.0000
  0
LINE
  8
29
 10
33.6328
 20
-20.3062
 30
0.0000
 11
33.6328
 21
-20.7473
 31
0.0000
  0
LINE
  8
29
 10
33.6328
 20
-20.7473
 30
0.0000
 11
33.8534
 21
-20.9678
 31
0.0000
  0
LINE
  8
29
 10
37.4961
 20
-13.1611
 30
0.0000
 11
36.1728
 21
-13.1611
 31
0.0000
  0
LINE
  8
29
 10
36.1728
 20
-13.1611
 30
0.0000
 11
36.1728
 21
-12.4995
 31
0.0000
  0
LINE
  8
29
 10
36.1728
 20
-12.4995
 30
0.0000
 11
36.3934
 21
-12.2789
 31
0.0000
  0
LINE
  8
29
 10
36.3934
 20
-12.2789
 30
0.0000
 11
36.6139
 21
-12.2789
 31
0.0000
  0
LINE
  8
29
 10
36.6139
 20
-12.2789
 30
0.0000
 11
36.8345
 21
-12.4995
 31
0.0000
  0
LINE
  8
29
 10
36.8345
 20
-12.4995
 30
0.0000
 11
37.0550
 21
-12.2789
 31
0.0000
  0
LINE
  8
29
 10
37.0550
 20
-12.2789
 30
0.0000
 11
37.2756
 21
-12.2789
 31
0.0000
  0
LINE
  8
29
 10
37.2756
 20
-12.2789
 30
0.0000
 11
37.4961
 21
-12.4995
 31
0.0000
  0
LINE
  8
29
 10
37.4961
 20
-12.4995
 30
0.0000
 11
37.4961
 21
-13.1611
 31
0.0000
  0
LINE
  8
29
 10
36.8345
 20
-13.1611
 30
0.0000
 11
36.8345
 21
-12.4995
 31
0.0000
  0
LINE
  8
29
 10
36.8345
 20
-11.7800
 30
0.0000
 11
36.8345
 21
-10.8978
 31
0.0000
  0
LINE
  8
29
 10
36.1728
 20
-9.5167
 30
0.0000
 11
36.3934
 21
-9.9578
 31
0.0000
  0
LINE
  8
29
 10
36.3934
 20
-9.9578
 30
0.0000
 11
36.8345
 21
-10.3989
 31
0.0000
  0
LINE
  8
29
 10
36.8345
 20
-10.3989
 30
0.0000
 11
37.2756
 21
-10.3989
 31
0.0000
  0
LINE
  8
29
 10
37.2756
 20
-10.3989
 30
0.0000
 11
37.4961
 21
-10.1784
 31
0.0000
  0
LINE
  8
29
 10
37.4961
 20
-10.1784
 30
0.0000
 11
37.4961
 21
-9.7373
 31
0.0000
  0
LINE
  8
29
 10
37.4961
 20
-9.7373
 30
0.0000
 11
37.2756
 21
-9.5167
 31
0.0000
  0
LINE
  8
29
 10
37.2756
 20
-9.5167
 30
0.0000
 11
37.0550
 21
-9.5167
 31
0.0000
  0
LINE
  8
29
 10
37.0550
 20
-9.5167
 30
0.0000
 11
36.8345
 21
-9.7373
 31
0.0000
  0
LINE
  8
29
 10
36.8345
 20
-9.7373
 30
0.0000
 11
36.8345
 21
-10.3989
 31
0.0000
  0
LINE
  8
29
 10
36.3934
 20
-9.0178
 30
0.0000
 11
36.1728
 21
-8.7973
 31
0.0000
  0
LINE
  8
29
 10
36.1728
 20
-8.7973
 30
0.0000
 11
36.1728
 21
-8.3562
 31
0.0000
  0
LINE
  8
29
 10
36.1728
 20
-8.3562
 30
0.0000
 11
36.3934
 21
-8.1356
 31
0.0000
  0
LINE
  8
29
 10
36.3934
 20
-8.1356
 30
0.0000
 11
36.6139
 21
-8.1356
 31
0.0000
  0
LINE
  8
29
 10
36.6139
 20
-8.1356
 30
0.0000
 11
36.8345
 21
-8.3562
 31
0.0000
  0
LINE
  8
29
 10
36.8345
 20
-8.3562
 30
0.0000
 11
36.8345
 21
-8.5767
 31
0.0000
  0
LINE
  8
29
 10
36.8345
 20
-8.3562
 30
0.0000
 11
37.0550
 21
-8.1356
 31
0.0000
  0
LINE
  8
29
 10
37.0550
 20
-8.1356
 30
0.0000
 11
37.2756
 21
-8.1356
 31
0.0000
  0
LINE
  8
29
 10
37.2756
 20
-8.1356
 30
0.0000
 11
37.4961
 21
-8.3562
 31
0.0000
  0
LINE
  8
29
 10
37.4961
 20
-8.3562
 30
0.0000
 11
37.4961
 21
-8.7973
 31
0.0000
  0
LINE
  8
29
 10
37.4961
 20
-8.7973
 30
0.0000
 11
37.2756
 21
-9.0178
 31
0.0000
  0
LINE
  8
29
 10
40.0361
 20
-13.1611
 30
0.0000
 11
38.7128
 21
-13.1611
 31
0.0000
  0
LINE
  8
29
 10
38.7128
 20
-13.1611
 30
0.0000
 11
38.7128
 21
-12.4995
 31
0.0000
  0
LINE
  8
29
 10
38.7128
 20
-12.4995
 30
0.0000
 11
38.9334
 21
-12.2789
 31
0.0000
  0
LINE
  8
29
 10
38.9334
 20
-12.2789
 30
0.0000
 11
39.1539
 21
-12.2789
 31
0.0000
  0
LINE
  8
29
 10
39.1539
 20
-12.2789
 30
0.0000
 11
39.3745
 21
-12.4995
 31
0.0000
  0
LINE
  8
29
 10
39.3745
 20
-12.4995
 30
0.0000
 11
39.5950
 21
-12.2789
 31
0.0000
  0
LINE
  8
29
 10
39.5950
 20
-12.2789
 30
0.0000
 11
39.8156
 21
-12.2789
 31
0.0000
  0
LINE
  8
29
 10
39.8156
 20
-12.2789
 30
0.0000
 11
40.0361
 21
-12.4995
 31
0.0000
  0
LINE
  8
29
 10
40.0361
 20
-12.4995
 30
0.0000
 11
40.0361
 21
-13.1611
 31
0.0000
  0
LINE
  8
29
 10
39.3745
 20
-13.1611
 30
0.0000
 11
39.3745
 21
-12.4995
 31
0.0000
  0
LINE
  8
29
 10
39.3745
 20
-11.7800
 30
0.0000
 11
39.3745
 21
-10.8978
 31
0.0000
  0
LINE
  8
29
 10
38.7128
 20
-9.5167
 30
0.0000
 11
38.9334
 21
-9.9578
 31
0.0000
  0
LINE
  8
29
 10
38.9334
 20
-9.9578
 30
0.0000
 11
39.3745
 21
-10.3989
 31
0.0000
  0
LINE
  8
29
 10
39.3745
 20
-10.3989
 30
0.0000
 11
39.8156
 21
-10.3989
 31
0.0000
  0
LINE
  8
29
 10
39.8156
 20
-10.3989
 30
0.0000
 11
40.0361
 21
-10.1784
 31
0.0000
  0
LINE
  8
29
 10
40.0361
 20
-10.1784
 30
0.0000
 11
40.0361
 21
-9.7373
 31
0.0000
  0
LINE
  8
29
 10
40.0361
 20
-9.7373
 30
0.0000
 11
39.8156
 21
-9.5167
 31
0.0000
  0
LINE
  8
29
 10
39.8156
 20
-9.5167
 30
0.0000
 11
39.5950
 21
-9.5167
 31
0.0000
  0
LINE
  8
29
 10
39.5950
 20
-9.5167
 30
0.0000
 11
39.3745
 21
-9.7373
 31
0.0000
  0
LINE
  8
29
 10
39.3745
 20
-9.7373
 30
0.0000
 11
39.3745
 21
-10.3989
 31
0.0000
  0
LINE
  8
29
 10
40.0361
 20
-8.3562
 30
0.0000
 11
38.7128
 21
-8.3562
 31
0.0000
  0
LINE
  8
29
 10
38.7128
 20
-8.3562
 30
0.0000
 11
39.3745
 21
-9.0178
 31
0.0000
  0
LINE
  8
29
 10
39.3745
 20
-9.0178
 30
0.0000
 11
39.3745
 21
-8.1356
 31
0.0000
  0
LINE
  8
29
 10
-31.0839
 20
-25.1111
 30
0.0000
 11
-32.4072
 21
-25.1111
 31
0.0000
  0
LINE
  8
29
 10
-32.4072
 20
-25.1111
 30
0.0000
 11
-32.4072
 21
-24.4495
 31
0.0000
  0
LINE
  8
29
 10
-32.4072
 20
-24.4495
 30
0.0000
 11
-32.1866
 21
-24.2289
 31
0.0000
  0
LINE
  8
29
 10
-32.1866
 20
-24.2289
 30
0.0000
 11
-31.9661
 21
-24.2289
 31
0.0000
  0
LINE
  8
29
 10
-31.9661
 20
-24.2289
 30
0.0000
 11
-31.7455
 21
-24.4495
 31
0.0000
  0
LINE
  8
29
 10
-31.7455
 20
-24.4495
 30
0.0000
 11
-31.5250
 21
-24.2289
 31
0.0000
  0
LINE
  8
29
 10
-31.5250
 20
-24.2289
 30
0.0000
 11
-31.3044
 21
-24.2289
 31
0.0000
  0
LINE
  8
29
 10
-31.3044
 20
-24.2289
 30
0.0000
 11
-31.0839
 21
-24.4495
 31
0.0000
  0
LINE
  8
29
 10
-31.0839
 20
-24.4495
 30
0.0000
 11
-31.0839
 21
-25.1111
 31
0.0000
  0
LINE
  8
29
 10
-31.7455
 20
-25.1111
 30
0.0000
 11
-31.7455
 21
-24.4495
 31
0.0000
  0
LINE
  8
29
 10
-31.7455
 20
-23.7300
 30
0.0000
 11
-31.7455
 21
-22.8478
 31
0.0000
  0
LINE
  8
29
 10
-32.1866
 20
-22.3489
 30
0.0000
 11
-32.4072
 21
-22.1284
 31
0.0000
  0
LINE
  8
29
 10
-32.4072
 20
-22.1284
 30
0.0000
 11
-32.4072
 21
-21.6873
 31
0.0000
  0
LINE
  8
29
 10
-32.4072
 20
-21.6873
 30
0.0000
 11
-32.1866
 21
-21.4667
 31
0.0000
  0
LINE
  8
29
 10
-32.1866
 20
-21.4667
 30
0.0000
 11
-31.9661
 21
-21.4667
 31
0.0000
  0
LINE
  8
29
 10
-31.9661
 20
-21.4667
 30
0.0000
 11
-31.7455
 21
-21.6873
 31
0.0000
  0
LINE
  8
29
 10
-31.7455
 20
-21.6873
 30
0.0000
 11
-31.7455
 21
-21.9078
 31
0.0000
  0
LINE
  8
29
 10
-31.7455
 20
-21.6873
 30
0.0000
 11
-31.5250
 21
-21.4667
 31
0.0000
  0
LINE
  8
29
 10
-31.5250
 20
-21.4667
 30
0.0000
 11
-31.3044
 21
-21.4667
 31
0.0000
  0
LINE
  8
29
 10
-31.3044
 20
-21.4667
 30
0.0000
 11
-31.0839
 21
-21.6873
 31
0.0000
  0
LINE
  8
29
 10
-31.0839
 20
-21.6873
 30
0.0000
 11
-31.0839
 21
-22.1284
 31
0.0000
  0
LINE
  8
29
 10
-31.0839
 20
-22.1284
 30
0.0000
 11
-31.3044
 21
-22.3489
 31
0.0000
  0
LINE
  8
29
 10
-32.4072
 20
-20.0856
 30
0.0000
 11
-32.1866
 21
-20.5267
 31
0.0000
  0
LINE
  8
29
 10
-32.1866
 20
-20.5267
 30
0.0000
 11
-31.7455
 21
-20.9678
 31
0.0000
  0
LINE
  8
29
 10
-31.7455
 20
-20.9678
 30
0.0000
 11
-31.3044
 21
-20.9678
 31
0.0000
  0
LINE
  8
29
 10
-31.3044
 20
-20.9678
 30
0.0000
 11
-31.0839
 21
-20.7473
 31
0.0000
  0
LINE
  8
29
 10
-31.0839
 20
-20.7473
 30
0.0000
 11
-31.0839
 21
-20.3062
 31
0.0000
  0
LINE
  8
29
 10
-31.0839
 20
-20.3062
 30
0.0000
 11
-31.3044
 21
-20.0856
 31
0.0000
  0
LINE
  8
29
 10
-31.3044
 20
-20.0856
 30
0.0000
 11
-31.5250
 21
-20.0856
 31
0.0000
  0
LINE
  8
29
 10
-31.5250
 20
-20.0856
 30
0.0000
 11
-31.7455
 21
-20.3062
 31
0.0000
  0
LINE
  8
29
 10
-31.7455
 20
-20.3062
 30
0.0000
 11
-31.7455
 21
-20.9678
 31
0.0000
  0
CIRCLE
  8
29
 10
-17.8156
 20
3.3305
 30
0.0000
 40
0.7411
  0
CIRCLE
  8
29
 10
-15.7960
 20
1.3109
 30
0.0000
 40
0.7410
  0
CIRCLE
  8
29
 10
9.4000
 20
0.0000
 30
0.0000
 40
0.5000
  0
CIRCLE
  8
20
 10
-39.5000
 20
-23.0000
 30
0.0000
 40
1.5500
  0
CIRCLE
  8
29
 10
-39.5000
 20
-23.0000
 30
0.0000
 40
1.6250
  0
CIRCLE
  8
20
 10
-39.5000
 20
23.0000
 30
0.0000
 40
1.5500
  0
CIRCLE
  8
29
 10
-39.5000
 20
23.0000
 30
0.0000
 40
1.6250
  0
CIRCLE
  8
20
 10
39.5000
 20
23.0000
 30
0.0000
 40
1.5500
  0
CIRCLE
  8
29
 10
39.5000
 20
23.0000
 30
0.0000
 40
1.6250
  0
CIRCLE
  8
20
 10
39.5000
 20
-23.0000
 30
0.0000
 40
1.5500
  0
CIRCLE
  8
29
 10
39.5000
 20
-23.0000
 30
0.0000
 40
1.6250
  0
LINE
  8
51
 10
6.5427
 20
-7.0462
 30
0.0000
 11
7.0462
 21
-6.5427
 31
0.0000
  0
LINE
  8
51
 10
7.1445
 20
-7.6480
 30
0.0000
 11
7.6480
 21
-7.1445
 31
0.0000
  0
INSERT
  8
51
  2
RECT
 10
6.6804
 20
-7.5122
 30
0.0000
 41
0.5001
 42
0.9500
 43
1.0000
 50
45.0000
  0
INSERT
  8
51
  2
RECT
 10
7.5066
 20
-6.6861
 30
0.0000
 41
0.5001
 42
0.9500
 43
1.0000
 50
45.0000
  0
INSERT
  8
29
  2
RECT6250X5750R30
 10
6.4989
 20
-7.7010
 30
0.0000
 41
1.0000
 42
1.0000
 43
1.0000
 50
45.0000
  0
INSERT
  8
29
  2
RECT6250X5750R30
 10
7.7010
 20
-6.4989
 30
0.0000
 41
1.0000
 42
1.0000
 43
1.0000
 50
225.0000
  0
LINE
  8
51
 10
-8.4037
 20
-4.1572
 30
0.0000
 11
-8.9072
 21
-3.6537
 31
0.0000
  0
LINE
  8
51
 10
-7.8019
 20
-3.5554
 30
0.0000
 11
-8.3054
 21
-3.0519
 31
0.0000
  0
INSERT
  8
51
  2
RECT
 10
-7.9377
 20
-4.0194
 30
0.0000
 41
0.5001
 42
0.9500
 43
1.0000
 50
135.0000
  0
INSERT
  8
51
  2
RECT
 10
-8.7637
 20
-3.1933
 30
0.0000
 41
0.5001
 42
0.9500
 43
1.0000
 50
135.0000
  0
INSERT
  8
29
  2
RECT6250X5750R30
 10
-7.7489
 20
-4.2010
 30
0.0000
 41
1.0000
 42
1.0000
 43
1.0000
 50
135.0000
  0
INSERT
  8
29
  2
RECT6250X5750R30
 10
-8.9510
 20
-2.9989
 30
0.0000
 41
1.0000
 42
1.0000
 43
1.0000
 50
315.0000
  0
LINE
  8
51
 10
-7.4897
 20
5.8267
 30
0.0000
 11
-6.9862
 21
6.3302
 31
0.0000
  0
LINE
  8
51
 10
-6.8879
 20
5.2249
 30
0.0000
 11
-6.3844
 21
5.7284
 31
0.0000
  0
INSERT
  8
51
  2
RECT
 10
-7.3519
 20
5.3607
 30
0.0000
 41
0.5001
 42
0.9500
 43
1.0000
 50
45.0000
  0
INSERT
  8
51
  2
RECT
 10
-6.5257
 20
6.1868
 30
0.0000
 41
0.5001
 42
0.9500
 43
1.0000
 50
45.0000
  0
INSERT
  8
29
  2
RECT6250X5750R30
 10
-7.5335
 20
5.1719
 30
0.0000
 41
1.0000
 42
1.0000
 43
1.0000
 50
45.0000
  0
INSERT
  8
29
  2
RECT6250X5750R30
 10
-6.3314
 20
6.3740
 30
0.0000
 41
1.0000
 42
1.0000
 43
1.0000
 50
225.0000
  0
LINE
  8
51
 10
22.1560
 20
-1.3820
 30
0.0000
 11
21.4440
 21
-1.3820
 31
0.0000
  0
LINE
  8
51
 10
22.1560
 20
-0.5310
 30
0.0000
 11
21.4440
 21
-0.5310
 31
0.0000
  0
INSERT
  8
51
  2
RECT
 10
22.3880
 20
-0.9551
 30
0.0000
 41
0.5001
 42
0.9500
 43
1.0000
 50
180.0000
  0
INSERT
  8
51
  2
RECT
 10
21.2198
 20
-0.9551
 30
0.0000
 41
0.5001
 42
0.9500
 43
1.0000
 50
180.0000
  0
INSERT
  8
29
  2
RECT6250X5750R30
 10
22.6500
 20
-0.9500
 30
0.0000
 41
1.0000
 42
1.0000
 43
1.0000
 50
180.0000
  0
INSERT
  8
29
  2
RECT6250X5750R30
 10
20.9500
 20
-0.9500
 30
0.0000
 41
1.0000
 42
1.0000
 43
1.0000
 50
0.0000
  0
LINE
  8
51
 10
-7.1781
 20
-8.5352
 30
0.0000
 11
-6.6746
 21
-8.0317
 31
0.0000
  0
LINE
  8
51
 10
-6.5763
 20
-9.1370
 30
0.0000
 11
-6.0728
 21
-8.6335
 31
0.0000
  0
INSERT
  8
51
  2
RECT
 10
-7.0403
 20
-9.0012
 30
0.0000
 41
0.5001
 42
0.9500
 43
1.0000
 50
45.0000
  0
INSERT
  8
51
  2
RECT
 10
-6.2141
 20
-8.1751
 30
0.0000
 41
0.5001
 42
0.9500
 43
1.0000
 50
45.0000
  0
INSERT
  8
29
  2
RECT6250X5750R30
 10
-7.2219
 20
-9.1900
 30
0.0000
 41
1.0000
 42
1.0000
 43
1.0000
 50
45.0000
  0
INSERT
  8
29
  2
RECT6250X5750R30
 10
-6.0198
 20
-7.9879
 30
0.0000
 41
1.0000
 42
1.0000
 43
1.0000
 50
225.0000
  0
LINE
  8
51
 10
-6.0167
 20
-5.3537
 30
0.0000
 11
-5.5132
 21
-5.8572
 31
0.0000
  0
LINE
  8
51
 10
-6.6185
 20
-5.9555
 30
0.0000
 11
-6.1150
 21
-6.4590
 31
0.0000
  0
INSERT
  8
51
  2
RECT
 10
-6.4827
 20
-5.4915
 30
0.0000
 41
0.5001
 42
0.9500
 43
1.0000
 50
315.0000
  0
INSERT
  8
51
  2
RECT
 10
-5.6565
 20
-6.3176
 30
0.0000
 41
0.5001
 42
0.9500
 43
1.0000
 50
315.0000
  0
INSERT
  8
29
  2
RECT6250X5750R30
 10
-6.6715
 20
-5.3099
 30
0.0000
 41
1.0000
 42
1.0000
 43
1.0000
 50
315.0000
  0
INSERT
  8
29
  2
RECT6250X5750R30
 10
-5.4694
 20
-6.5120
 30
0.0000
 41
1.0000
 42
1.0000
 43
1.0000
 50
135.0000
  0
LINE
  8
51
 10
5.5663
 20
-6.0705
 30
0.0000
 11
6.0698
 21
-5.5670
 31
0.0000
  0
LINE
  8
51
 10
6.1681
 20
-6.6723
 30
0.0000
 11
6.6716
 21
-6.1688
 31
0.0000
  0
INSERT
  8
51
  2
RECT
 10
5.7040
 20
-6.5365
 30
0.0000
 41
0.5001
 42
0.9500
 43
1.0000
 50
45.0000
  0
INSERT
  8
51
  2
RECT
 10
6.5302
 20
-5.7104
 30
0.0000
 41
0.5001
 42
0.9500
 43
1.0000
 50
45.0000
  0
INSERT
  8
29
  2
RECT6250X5750R30
 10
5.5225
 20
-6.7253
 30
0.0000
 41
1.0000
 42
1.0000
 43
1.0000
 50
45.0000
  0
INSERT
  8
29
  2
RECT6250X5750R30
 10
6.7246
 20
-5.5232
 30
0.0000
 41
1.0000
 42
1.0000
 43
1.0000
 50
225.0000
  0
LINE
  8
51
 10
-30.1240
 20
7.7680
 30
0.0000
 11
-30.8360
 21
7.7680
 31
0.0000
  0
LINE
  8
51
 10
-30.1240
 20
8.6190
 30
0.0000
 11
-30.8360
 21
8.6190
 31
0.0000
  0
INSERT
  8
51
  2
RECT
 10
-29.8919
 20
8.1949
 30
0.0000
 41
0.5001
 42
0.9500
 43
1.0000
 50
180.0000
  0
INSERT
  8
51
  2
RECT
 10
-31.0601
 20
8.1949
 30
0.0000
 41
0.5001
 42
0.9500
 43
1.0000
 50
180.0000
  0
INSERT
  8
29
  2
RECT6250X5750R30
 10
-29.6300
 20
8.2000
 30
0.0000
 41
1.0000
 42
1.0000
 43
1.0000
 50
180.0000
  0
INSERT
  8
29
  2
RECT6250X5750R30
 10
-31.3300
 20
8.2000
 30
0.0000
 41
1.0000
 42
1.0000
 43
1.0000
 50
0.0000
  0
LINE
  8
51
 10
-15.6440
 20
9.4180
 30
0.0000
 11
-16.3560
 21
9.4180
 31
0.0000
  0
LINE
  8
51
 10
-15.6440
 20
10.2690
 30
0.0000
 11
-16.3560
 21
10.2690
 31
0.0000
  0
INSERT
  8
51
  2
RECT
 10
-15.4119
 20
9.8449
 30
0.0000
 41
0.5001
 42
0.9500
 43
1.0000
 50
180.0000
  0
INSERT
  8
51
  2
RECT
 10
-16.5801
 20
9.8449
 30
0.0000
 41
0.5001
 42
0.9500
 43
1.0000
 50
180.0000
  0
INSERT
  8
29
  2
RECT6250X5750R30
 10
-15.1500
 20
9.8500
 30
0.0000
 41
1.0000
 42
1.0000
 43
1.0000
 50
180.0000
  0
INSERT
  8
29
  2
RECT6250X5750R30
 10
-16.8500
 20
9.8500
 30
0.0000
 41
1.0000
 42
1.0000
 43
1.0000
 50
0.0000
  0
LINE
  8
51
 10
12.3440
 20
8.6320
 30
0.0000
 11
13.0560
 21
8.6320
 31
0.0000
  0
LINE
  8
51
 10
12.3440
 20
7.7810
 30
0.0000
 11
13.0560
 21
7.7810
 31
0.0000
  0
INSERT
  8
51
  2
RECT
 10
12.1118
 20
8.2051
 30
0.0000
 41
0.5001
 42
0.9500
 43
1.0000
 50
0.0000
  0
INSERT
  8
51
  2
RECT
 10
13.2802
 20
8.2051
 30
0.0000
 41
0.5001
 42
0.9500
 43
1.0000
 50
0.0000
  0
INSERT
  8
29
  2
RECT6250X5750R30
 10
11.8500
 20
8.2000
 30
0.0000
 41
1.0000
 42
1.0000
 43
1.0000
 50
0.0000
  0
INSERT
  8
29
  2
RECT6250X5750R30
 10
13.5500
 20
8.2000
 30
0.0000
 41
1.0000
 42
1.0000
 43
1.0000
 50
180.0000
  0
LINE
  8
51
 10
30.1240
 20
8.6320
 30
0.0000
 11
30.8360
 21
8.6320
 31
0.0000
  0
LINE
  8
51
 10
30.1240
 20
7.7810
 30
0.0000
 11
30.8360
 21
7.7810
 31
0.0000
  0
INSERT
  8
51
  2
RECT
 10
29.8918
 20
8.2051
 30
0.0000
 41
0.5001
 42
0.9500
 43
1.0000
 50
0.0000
  0
INSERT
  8
51
  2
RECT
 10
31.0602
 20
8.2051
 30
0.0000
 41
0.5001
 42
0.9500
 43
1.0000
 50
0.0000
  0
INSERT
  8
29
  2
RECT6250X5750R30
 10
29.6300
 20
8.2000
 30
0.0000
 41
1.0000
 42
1.0000
 43
1.0000
 50
0.0000
  0
INSERT
  8
29
  2
RECT6250X5750R30
 10
31.3300
 20
8.2000
 30
0.0000
 41
1.0000
 42
1.0000
 43
1.0000
 50
180.0000
  0
LINE
  8
51
 10
-30.1240
 20
-8.6320
 30
0.0000
 11
-30.8360
 21
-8.6320
 31
0.0000
  0
LINE
  8
51
 10
-30.1240
 20
-7.7810
 30
0.0000
 11
-30.8360
 21
-7.7810
 31
0.0000
  0
INSERT
  8
51
  2
RECT
 10
-29.8919
 20
-8.2051
 30
0.0000
 41
0.5001
 42
0.9500
 43
1.0000
 50
180.0000
  0
INSERT
  8
51
  2
RECT
 10
-31.0601
 20
-8.2051
 30
0.0000
 41
0.5001
 42
0.9500
 43
1.0000
 50
180.0000
  0
INSERT
  8
29
  2
RECT6250X5750R30
 10
-29.6300
 20
-8.2000
 30
0.0000
 41
1.0000
 42
1.0000
 43
1.0000
 50
180.0000
  0
INSERT
  8
29
  2
RECT6250X5750R30
 10
-31.3300
 20
-8.2000
 30
0.0000
 41
1.0000
 42
1.0000
 43
1.0000
 50
0.0000
  0
LINE
  8
51
 10
-13.0560
 20
-7.9680
 30
0.0000
 11
-12.3440
 21
-7.9680
 31
0.0000
  0
LINE
  8
51
 10
-13.0560
 20
-8.8190
 30
0.0000
 11
-12.3440
 21
-8.8190
 31
0.0000
  0
INSERT
  8
51
  2
RECT
 10
-13.2881
 20
-8.3949
 30
0.0000
 41
0.5001
 42
0.9500
 43
1.0000
 50
0.0000
  0
INSERT
  8
51
  2
RECT
 10
-12.1197
 20
-8.3949
 30
0.0000
 41
0.5001
 42
0.9500
 43
1.0000
 50
0.0000
  0
INSERT
  8
29
  2
RECT6250X5750R30
 10
-13.5500
 20
-8.4000
 30
0.0000
 41
1.0000
 42
1.0000
 43
1.0000
 50
0.0000
  0
INSERT
  8
29
  2
RECT6250X5750R30
 10
-11.8500
 20
-8.4000
 30
0.0000
 41
1.0000
 42
1.0000
 43
1.0000
 50
180.0000
  0
LINE
  8
51
 10
12.3440
 20
-7.7680
 30
0.0000
 11
13.0560
 21
-7.7680
 31
0.0000
  0
LINE
  8
51
 10
12.3440
 20
-8.6190
 30
0.0000
 11
13.0560
 21
-8.6190
 31
0.0000
  0
INSERT
  8
51
  2
RECT
 10
12.1118
 20
-8.1949
 30
0.0000
 41
0.5001
 42
0.9500
 43
1.0000
 50
0.0000
  0
INSERT
  8
51
  2
RECT
 10
13.2802
 20
-8.1949
 30
0.0000
 41
0.5001
 42
0.9500
 43
1.0000
 50
0.0000
  0
INSERT
  8
29
  2
RECT6250X5750R30
 10
11.8500
 20
-8.2000
 30
0.0000
 41
1.0000
 42
1.0000
 43
1.0000
 50
0.0000
  0
INSERT
  8
29
  2
RECT6250X5750R30
 10
13.5500
 20
-8.2000
 30
0.0000
 41
1.0000
 42
1.0000
 43
1.0000
 50
180.0000
  0
LINE
  8
51
 10
30.0240
 20
-7.8680
 30
0.0000
 11
30.7360
 21
-7.8680
 31
0.0000
  0
LINE
  8
51
 10
30.0240
 20
-8.7190
 30
0.0000
 11
30.7360
 21
-8.7190
 31
0.0000
  0
INSERT
  8
51
  2
RECT
 10
29.7918
 20
-8.2949
 30
0.0000
 41
0.5001
 42
0.9500
 43
1.0000
 50
0.0000
  0
INSERT
  8
51
  2
RECT
 10
30.9602
 20
-8.2949
 30
0.0000
 41
0.5001
 42
0.9500
 43
1.0000
 50
0.0000
  0
INSERT
  8
29
  2
RECT6250X5750R30
 10
29.5300
 20
-8.3000
 30
0.0000
 41
1.0000
 42
1.0000
 43
1.0000
 50
0.0000
  0
INSERT
  8
29
  2
RECT6250X5750R30
 10
31.2300
 20
-8.3000
 30
0.0000
 41
1.0000
 42
1.0000
 43
1.0000
 50
180.0000
  0
LINE
  8
51
 10
-4.1537
 20
8.1177
 30
0.0000
 11
-4.6572
 21
8.6212
 31
0.0000
  0
LINE
  8
51
 10
-3.5519
 20
8.7195
 30
0.0000
 11
-4.0554
 21
9.2230
 31
0.0000
  0
INSERT
  8
51
  2
RECT
 10
-3.6877
 20
8.2555
 30
0.0000
 41
0.5001
 42
0.9500
 43
1.0000
 50
135.0000
  0
INSERT
  8
51
  2
RECT
 10
-4.5137
 20
9.0816
 30
0.0000
 41
0.5001
 42
0.9500
 43
1.0000
 50
135.0000
  0
INSERT
  8
29
  2
RECT6250X5750R30
 10
-3.4989
 20
8.0739
 30
0.0000
 41
1.0000
 42
1.0000
 43
1.0000
 50
135.0000
  0
INSERT
  8
29
  2
RECT6250X5750R30
 10
-4.7010
 20
9.2760
 30
0.0000
 41
1.0000
 42
1.0000
 43
1.0000
 50
315.0000
  0
LINE
  8
51
 10
5.2427
 20
7.4037
 30
0.0000
 11
5.7462
 21
7.9072
 31
0.0000
  0
LINE
  8
51
 10
5.8445
 20
6.8019
 30
0.0000
 11
6.3480
 21
7.3054
 31
0.0000
  0
INSERT
  8
51
  2
RECT
 10
5.3804
 20
6.9377
 30
0.0000
 41
0.5001
 42
0.9500
 43
1.0000
 50
45.0000
  0
INSERT
  8
51
  2
RECT
 10
6.2066
 20
7.7638
 30
0.0000
 41
0.5001
 42
0.9500
 43
1.0000
 50
45.0000
  0
INSERT
  8
29
  2
RECT6250X5750R30
 10
5.1989
 20
6.7489
 30
0.0000
 41
1.0000
 42
1.0000
 43
1.0000
 50
45.0000
  0
INSERT
  8
29
  2
RECT6250X5750R30
 10
6.4010
 20
7.9510
 30
0.0000
 41
1.0000
 42
1.0000
 43
1.0000
 50
225.0000
  0
LINE
  8
51
 10
22.1560
 20
0.5180
 30
0.0000
 11
21.4440
 21
0.5180
 31
0.0000
  0
LINE
  8
51
 10
22.1560
 20
1.3690
 30
0.0000
 11
21.4440
 21
1.3690
 31
0.0000
  0
INSERT
  8
51
  2
RECT
 10
22.3880
 20
0.9449
 30
0.0000
 41
0.5001
 42
0.9500
 43
1.0000
 50
180.0000
  0
INSERT
  8
51
  2
RECT
 10
21.2198
 20
0.9449
 30
0.0000
 41
0.5001
 42
0.9500
 43
1.0000
 50
180.0000
  0
INSERT
  8
29
  2
RECT6250X5750R30
 10
22.6500
 20
0.9500
 30
0.0000
 41
1.0000
 42
1.0000
 43
1.0000
 50
180.0000
  0
INSERT
  8
29
  2
RECT6250X5750R30
 10
20.9500
 20
0.9500
 30
0.0000
 41
1.0000
 42
1.0000
 43
1.0000
 50
0.0000
  0
LINE
  8
51
 10
0.0000
 20
8.5701
 30
0.0000
 11
-8.5701
 21
0.0000
 31
0.0000
  0
LINE
  8
51
 10
-8.5701
 20
0.0000
 30
0.0000
 11
0.0000
 21
-8.5701
 31
0.0000
  0
LINE
  8
51
 10
0.0000
 20
-8.5701
 30
0.0000
 11
8.0044
 21
-0.5656
 31
0.0000
  0
LINE
  8
51
 10
8.0044
 20
-0.5656
 30
0.0000
 11
8.0044
 21
0.5656
 31
0.0000
  0
LINE
  8
51
 10
8.0044
 20
0.5656
 30
0.0000
 11
0.0000
 21
8.5701
 31
0.0000
  0
LINE
  8
21
 10
0.0070
 20
-8.2943
 30
0.0000
 11
-8.2872
 21
0.0000
 31
0.0000
  0
LINE
  8
21
 10
-8.2872
 20
0.0000
 30
0.0000
 11
0.0000
 21
8.2872
 31
0.0000
  0
LINE
  8
21
 10
0.0000
 20
8.2872
 30
0.0000
 11
7.8347
 21
0.4525
 31
0.0000
  0
LINE
  8
21
 10
7.8347
 20
0.4525
 30
0.0000
 11
7.8347
 21
-0.4666
 31
0.0000
  0
LINE
  8
21
 10
7.8347
 20
-0.4666
 30
0.0000
 11
0.0070
 21
-8.2943
 31
0.0000
  0
CIRCLE
  8
21
 10
6.3641
 20
0.0000
 30
0.0000
 40
0.4999
  0
INSERT
  8
51
  2
RECT
 10
1.3258
 20
-8.0431
 30
0.0000
 41
0.9498
 42
0.2750
 43
1.0000
 50
135.0000
  0
INSERT
  8
51
  2
RECT
 10
1.6793
 20
-7.6896
 30
0.0000
 41
0.9498
 42
0.2750
 43
1.0000
 50
135.0000
  0
INSERT
  8
51
  2
RECT
 10
2.0329
 20
-7.3360
 30
0.0000
 41
0.9498
 42
0.2750
 43
1.0000
 50
135.0000
  0
INSERT
  8
51
  2
RECT
 10
2.3864
 20
-6.9825
 30
0.0000
 41
0.9498
 42
0.2750
 43
1.0000
 50
135.0000
  0
INSERT
  8
51
  2
RECT
 10
2.7400
 20
-6.6289
 30
0.0000
 41
0.9498
 42
0.2750
 43
1.0000
 50
135.0000
  0
INSERT
  8
51
  2
RECT
 10
3.0935
 20
-6.2754
 30
0.0000
 41
0.9498
 42
0.2750
 43
1.0000
 50
135.0000
  0
INSERT
  8
51
  2
RECT
 10
3.4471
 20
-5.9218
 30
0.0000
 41
0.9498
 42
0.2750
 43
1.0000
 50
135.0000
  0
INSERT
  8
51
  2
RECT
 10
3.8006
 20
-5.5683
 30
0.0000
 41
0.9498
 42
0.2750
 43
1.0000
 50
135.0000
  0
INSERT
  8
51
  2
RECT
 10
4.1542
 20
-5.2147
 30
0.0000
 41
0.9498
 42
0.2750
 43
1.0000
 50
135.0000
  0
INSERT
  8
51
  2
RECT
 10
4.5078
 20
-4.8612
 30
0.0000
 41
0.9498
 42
0.2750
 43
1.0000
 50
135.0000
  0
INSERT
  8
51
  2
RECT
 10
4.8612
 20
-4.5077
 30
0.0000
 41
0.9498
 42
0.2750
 43
1.0000
 50
135.0000
  0
INSERT
  8
51
  2
RECT
 10
5.2148
 20
-4.1541
 30
0.0000
 41
0.9498
 42
0.2750
 43
1.0000
 50
135.0000
  0
INSERT
  8
51
  2
RECT
 10
5.5683
 20
-3.8006
 30
0.0000
 41
0.9498
 42
0.2750
 43
1.0000
 50
135.0000
  0
INSERT
  8
51
  2
RECT
 10
5.9219
 20
-3.4470
 30
0.0000
 41
0.9498
 42
0.2750
 43
1.0000
 50
135.0000
  0
INSERT
  8
51
  2
RECT
 10
6.2755
 20
-3.0935
 30
0.0000
 41
0.9498
 42
0.2750
 43
1.0000
 50
135.0000
  0
INSERT
  8
51
  2
RECT
 10
6.6290
 20
-2.7399
 30
0.0000
 41
0.9498
 42
0.2750
 43
1.0000
 50
135.0000
  0
INSERT
  8
51
  2
RECT
 10
6.9826
 20
-2.3864
 30
0.0000
 41
0.9498
 42
0.2750
 43
1.0000
 50
135.0000
  0
INSERT
  8
51
  2
RECT
 10
7.3361
 20
-2.0328
 30
0.0000
 41
0.9498
 42
0.2750
 43
1.0000
 50
135.0000
  0
INSERT
  8
51
  2
RECT
 10
7.6897
 20
-1.6793
 30
0.0000
 41
0.9498
 42
0.2750
 43
1.0000
 50
135.0000
  0
INSERT
  8
51
  2
RECT
 10
8.0432
 20
-1.3257
 30
0.0000
 41
0.9498
 42
0.2750
 43
1.0000
 50
135.0000
  0
INSERT
  8
51
  2
RECT
 10
8.0431
 20
1.3258
 30
0.0000
 41
0.9498
 42
0.2750
 43
1.0000
 50
225.0000
  0
INSERT
  8
51
  2
RECT
 10
7.6896
 20
1.6793
 30
0.0000
 41
0.9498
 42
0.2750
 43
1.0000
 50
225.0000
  0
INSERT
  8
51
  2
RECT
 10
7.3360
 20
2.0329
 30
0.0000
 41
0.9498
 42
0.2750
 43
1.0000
 50
225.0000
  0
INSERT
  8
51
  2
RECT
 10
6.9825
 20
2.3864
 30
0.0000
 41
0.9498
 42
0.2750
 43
1.0000
 50
225.0000
  0
INSERT
  8
51
  2
RECT
 10
6.6289
 20
2.7400
 30
0.0000
 41
0.9498
 42
0.2750
 43
1.0000
 50
225.0000
  0
INSERT
  8
51
  2
RECT
 10
6.2754
 20
3.0935
 30
0.0000
 41
0.9498
 42
0.2750
 43
1.0000
 50
225.0000
  0
INSERT
  8
51
  2
RECT
 10
5.9218
 20
3.4471
 30
0.0000
 41
0.9498
 42
0.2750
 43
1.0000
 50
225.0000
  0
INSERT
  8
51
  2
RECT
 10
5.5683
 20
3.8006
 30
0.0000
 41
0.9498
 42
0.2750
 43
1.0000
 50
225.0000
  0
INSERT
  8
51
  2
RECT
 10
5.2147
 20
4.1542
 30
0.0000
 41
0.9498
 42
0.2750
 43
1.0000
 50
225.0000
  0
INSERT
  8
51
  2
RECT
 10
4.8612
 20
4.5078
 30
0.0000
 41
0.9498
 42
0.2750
 43
1.0000
 50
225.0000
  0
INSERT
  8
51
  2
RECT
 10
4.5077
 20
4.8612
 30
0.0000
 41
0.9498
 42
0.2750
 43
1.0000
 50
225.0000
  0
INSERT
  8
51
  2
RECT
 10
4.1541
 20
5.2148
 30
0.0000
 41
0.9498
 42
0.2750
 43
1.0000
 50
225.0000
  0
INSERT
  8
51
  2
RECT
 10
3.8006
 20
5.5683
 30
0.0000
 41
0.9498
 42
0.2750
 43
1.0000
 50
225.0000
  0
INSERT
  8
51
  2
RECT
 10
3.4470
 20
5.9219
 30
0.0000
 41
0.9498
 42
0.2750
 43
1.0000
 50
225.0000
  0
INSERT
  8
51
  2
RECT
 10
3.0935
 20
6.2755
 30
0.0000
 41
0.9498
 42
0.2750
 43
1.0000
 50
225.0000
  0
INSERT
  8
51
  2
RECT
 10
2.7399
 20
6.6290
 30
0.0000
 41
0.9498
 42
0.2750
 43
1.0000
 50
225.0000
  0
INSERT
  8
51
  2
RECT
 10
2.3864
 20
6.9826
 30
0.0000
 41
0.9498
 42
0.2750
 43
1.0000
 50
225.0000
  0
INSERT
  8
51
  2
RECT
 10
2.0328
 20
7.3361
 30
0.0000
 41
0.9498
 42
0.2750
 43
1.0000
 50
225.0000
  0
INSERT
  8
51
  2
RECT
 10
1.6793
 20
7.6897
 30
0.0000
 41
0.9498
 42
0.2750
 43
1.0000
 50
225.0000
  0
INSERT
  8
51
  2
RECT
 10
1.3257
 20
8.0432
 30
0.0000
 41
0.9498
 42
0.2750
 43
1.0000
 50
225.0000
  0
INSERT
  8
51
  2
RECT
 10
-1.3258
 20
8.0431
 30
0.0000
 41
0.9498
 42
0.2750
 43
1.0000
 50
315.0000
  0
INSERT
  8
51
  2
RECT
 10
-1.6793
 20
7.6896
 30
0.0000
 41
0.9498
 42
0.2750
 43
1.0000
 50
315.0000
  0
INSERT
  8
51
  2
RECT
 10
-2.0329
 20
7.3360
 30
0.0000
 41
0.9498
 42
0.2750
 43
1.0000
 50
315.0000
  0
INSERT
  8
51
  2
RECT
 10
-2.3864
 20
6.9825
 30
0.0000
 41
0.9498
 42
0.2750
 43
1.0000
 50
315.0000
  0
INSERT
  8
51
  2
RECT
 10
-2.7400
 20
6.6289
 30
0.0000
 41
0.9498
 42
0.2750
 43
1.0000
 50
315.0000
  0
INSERT
  8
51
  2
RECT
 10
-3.0935
 20
6.2754
 30
0.0000
 41
0.9498
 42
0.2750
 43
1.0000
 50
315.0000
  0
INSERT
  8
51
  2
RECT
 10
-3.4471
 20
5.9218
 30
0.0000
 41
0.9498
 42
0.2750
 43
1.0000
 50
315.0000
  0
INSERT
  8
51
  2
RECT
 10
-3.8006
 20
5.5683
 30
0.0000
 41
0.9498
 42
0.2750
 43
1.0000
 50
315.0000
  0
INSERT
  8
51
  2
RECT
 10
-4.1542
 20
5.2147
 30
0.0000
 41
0.9498
 42
0.2750
 43
1.0000
 50
315.0000
  0
INSERT
  8
51
  2
RECT
 10
-4.5078
 20
4.8612
 30
0.0000
 41
0.9498
 42
0.2750
 43
1.0000
 50
315.0000
  0
INSERT
  8
51
  2
RECT
 10
-4.8612
 20
4.5077
 30
0.0000
 41
0.9498
 42
0.2750
 43
1.0000
 50
315.0000
  0
INSERT
  8
51
  2
RECT
 10
-5.2148
 20
4.1541
 30
0.0000
 41
0.9498
 42
0.2750
 43
1.0000
 50
315.0000
  0
INSERT
  8
51
  2
RECT
 10
-5.5683
 20
3.8006
 30
0.0000
 41
0.9498
 42
0.2750
 43
1.0000
 50
315.0000
  0
INSERT
  8
51
  2
RECT
 10
-5.9219
 20
3.4470
 30
0.0000
 41
0.9498
 42
0.2750
 43
1.0000
 50
315.0000
  0
INSERT
  8
51
  2
RECT
 10
-6.2755
 20
3.0935
 30
0.0000
 41
0.9498
 42
0.2750
 43
1.0000
 50
315.0000
  0
INSERT
  8
51
  2
RECT
 10
-6.6290
 20
2.7399
 30
0.0000
 41
0.9498
 42
0.2750
 43
1.0000
 50
315.0000
  0
INSERT
  8
51
  2
RECT
 10
-6.9826
 20
2.3864
 30
0.0000
 41
0.9498
 42
0.2750
 43
1.0000
 50
315.0000
  0
INSERT
  8
51
  2
RECT
 10
-7.3361
 20
2.0328
 30
0.0000
 41
0.9498
 42
0.2750
 43
1.0000
 50
315.0000
  0
INSERT
  8
51
  2
RECT
 10
-7.6897
 20
1.6793
 30
0.0000
 41
0.9498
 42
0.2750
 43
1.0000
 50
315.0000
  0
INSERT
  8
51
  2
RECT
 10
-8.0432
 20
1.3257
 30
0.0000
 41
0.9498
 42
0.2750
 43
1.0000
 50
315.0000
  0
INSERT
  8
51
  2
RECT
 10
-8.0431
 20
-1.3258
 30
0.0000
 41
0.9498
 42
0.2750
 43
1.0000
 50
45.0000
  0
INSERT
  8
51
  2
RECT
 10
-7.6896
 20
-1.6793
 30
0.0000
 41
0.9498
 42
0.2750
 43
1.0000
 50
45.0000
  0
INSERT
  8
51
  2
RECT
 10
-7.3360
 20
-2.0329
 30
0.0000
 41
0.9498
 42
0.2750
 43
1.0000
 50
45.0000
  0
INSERT
  8
51
  2
RECT
 10
-6.9825
 20
-2.3864
 30
0.0000
 41
0.9498
 42
0.2750
 43
1.0000
 50
45.0000
  0
INSERT
  8
51
  2
RECT
 10
-6.6289
 20
-2.7400
 30
0.0000
 41
0.9498
 42
0.2750
 43
1.0000
 50
45.0000
  0
INSERT
  8
51
  2
RECT
 10
-6.2754
 20
-3.0935
 30
0.0000
 41
0.9498
 42
0.2750
 43
1.0000
 50
45.0000
  0
INSERT
  8
51
  2
RECT
 10
-5.9218
 20
-3.4471
 30
0.0000
 41
0.9498
 42
0.2750
 43
1.0000
 50
45.0000
  0
INSERT
  8
51
  2
RECT
 10
-5.5683
 20
-3.8006
 30
0.0000
 41
0.9498
 42
0.2750
 43
1.0000
 50
45.0000
  0
INSERT
  8
51
  2
RECT
 10
-5.2147
 20
-4.1542
 30
0.0000
 41
0.9498
 42
0.2750
 43
1.0000
 50
45.0000
  0
INSERT
  8
51
  2
RECT
 10
-4.8612
 20
-4.5078
 30
0.0000
 41
0.9498
 42
0.2750
 43
1.0000
 50
45.0000
  0
INSERT
  8
51
  2
RECT
 10
-4.5077
 20
-4.8612
 30
0.0000
 41
0.9498
 42
0.2750
 43
1.0000
 50
45.0000
  0
INSERT
  8
51
  2
RECT
 10
-4.1541
 20
-5.2148
 30
0.0000
 41
0.9498
 42
0.2750
 43
1.0000
 50
45.0000
  0
INSERT
  8
51
  2
RECT
 10
-3.8006
 20
-5.5683
 30
0.0000
 41
0.9498
 42
0.2750
 43
1.0000
 50
45.0000
  0
INSERT
  8
51
  2
RECT
 10
-3.4470
 20
-5.9219
 30
0.0000
 41
0.9498
 42
0.2750
 43
1.0000
 50
45.0000
  0
INSERT
  8
51
  2
RECT
 10
-3.0935
 20
-6.2755
 30
0.0000
 41
0.9498
 42
0.2750
 43
1.0000
 50
45.0000
  0
INSERT
  8
51
  2
RECT
 10
-2.7399
 20
-6.6290
 30
0.0000
 41
0.9498
 42
0.2750
 43
1.0000
 50
45.0000
  0
INSERT
  8
51
  2
RECT
 10
-2.3864
 20
-6.9826
 30
0.0000
 41
0.9498
 42
0.2750
 43
1.0000
 50
45.0000
  0
INSERT
  8
51
  2
RECT
 10
-2.0328
 20
-7.3361
 30
0.0000
 41
0.9498
 42
0.2750
 43
1.0000
 50
45.0000
  0
INSERT
  8
51
  2
RECT
 10
-1.6793
 20
-7.6897
 30
0.0000
 41
0.9498
 42
0.2750
 43
1.0000
 50
45.0000
  0
INSERT
  8
51
  2
RECT
 10
-1.3257
 20
-8.0432
 30
0.0000
 41
0.9498
 42
0.2750
 43
1.0000
 50
45.0000
  0
INSERT
  8
29
  2
RECT2250X6750R100
 10
8.1140
 20
1.3965
 30
0.0000
 41
1.0000
 42
1.0000
 43
1.0000
 50
135.0000
  0
INSERT
  8
29
  2
RECT2250X6750R100
 10
7.7604
 20
1.7500
 30
0.0000
 41
1.0000
 42
1.0000
 43
1.0000
 50
135.0000
  0
INSERT
  8
29
  2
RECT2250X6750R100
 10
7.4069
 20
2.1036
 30
0.0000
 41
1.0000
 42
1.0000
 43
1.0000
 50
135.0000
  0
INSERT
  8
29
  2
RECT2250X6750R100
 10
7.0533
 20
2.4571
 30
0.0000
 41
1.0000
 42
1.0000
 43
1.0000
 50
135.0000
  0
INSERT
  8
29
  2
RECT2250X6750R100
 10
6.6998
 20
2.8107
 30
0.0000
 41
1.0000
 42
1.0000
 43
1.0000
 50
135.0000
  0
INSERT
  8
29
  2
RECT2250X6750R100
 10
6.3462
 20
3.1643
 30
0.0000
 41
1.0000
 42
1.0000
 43
1.0000
 50
135.0000
  0
INSERT
  8
29
  2
RECT2250X6750R100
 10
5.9927
 20
3.5178
 30
0.0000
 41
1.0000
 42
1.0000
 43
1.0000
 50
135.0000
  0
INSERT
  8
29
  2
RECT2250X6750R100
 10
5.6391
 20
3.8714
 30
0.0000
 41
1.0000
 42
1.0000
 43
1.0000
 50
135.0000
  0
INSERT
  8
29
  2
RECT2250X6750R100
 10
5.2856
 20
4.2249
 30
0.0000
 41
1.0000
 42
1.0000
 43
1.0000
 50
135.0000
  0
INSERT
  8
29
  2
RECT2250X6750R100
 10
4.9320
 20
4.5785
 30
0.0000
 41
1.0000
 42
1.0000
 43
1.0000
 50
135.0000
  0
INSERT
  8
29
  2
RECT2250X6750R100
 10
4.5785
 20
4.9320
 30
0.0000
 41
1.0000
 42
1.0000
 43
1.0000
 50
135.0000
  0
INSERT
  8
29
  2
RECT2250X6750R100
 10
4.2249
 20
5.2856
 30
0.0000
 41
1.0000
 42
1.0000
 43
1.0000
 50
135.0000
  0
INSERT
  8
29
  2
RECT2250X6750R100
 10
3.8714
 20
5.6391
 30
0.0000
 41
1.0000
 42
1.0000
 43
1.0000
 50
135.0000
  0
INSERT
  8
29
  2
RECT2250X6750R100
 10
3.5178
 20
5.9927
 30
0.0000
 41
1.0000
 42
1.0000
 43
1.0000
 50
135.0000
  0
INSERT
  8
29
  2
RECT2250X6750R100
 10
3.1643
 20
6.3462
 30
0.0000
 41
1.0000
 42
1.0000
 43
1.0000
 50
135.0000
  0
INSERT
  8
29
  2
RECT2250X6750R100
 10
2.8107
 20
6.6998
 30
0.0000
 41
1.0000
 42
1.0000
 43
1.0000
 50
135.0000
  0
INSERT
  8
29
  2
RECT2250X6750R100
 10
2.4571
 20
7.0533
 30
0.0000
 41
1.0000
 42
1.0000
 43
1.0000
 50
135.0000
  0
INSERT
  8
29
  2
RECT2250X6750R100
 10
2.1036
 20
7.4069
 30
0.0000
 41
1.0000
 42
1.0000
 43
1.0000
 50
135.0000
  0
INSERT
  8
29
  2
RECT2250X6750R100
 10
1.7500
 20
7.7604
 30
0.0000
 41
1.0000
 42
1.0000
 43
1.0000
 50
135.0000
  0
INSERT
  8
29
  2
RECT2250X6750R100
 10
1.3965
 20
8.1140
 30
0.0000
 41
1.0000
 42
1.0000
 43
1.0000
 50
135.0000
  0
INSERT
  8
29
  2
RECT6750X2250R100
 10
-1.3965
 20
8.1140
 30
0.0000
 41
1.0000
 42
1.0000
 43
1.0000
 50
135.0000
  0
INSERT
  8
29
  2
RECT6750X2250R100
 10
-1.7500
 20
7.7604
 30
0.0000
 41
1.0000
 42
1.0000
 43
1.0000
 50
135.0000
  0
INSERT
  8
29
  2
RECT6750X2250R100
 10
-2.1036
 20
7.4069
 30
0.0000
 41
1.0000
 42
1.0000
 43
1.0000
 50
135.0000
  0
INSERT
  8
29
  2
RECT6750X2250R100
 10
-2.4571
 20
7.0533
 30
0.0000
 41
1.0000
 42
1.0000
 43
1.0000
 50
135.0000
  0
INSERT
  8
29
  2
RECT6750X2250R100
 10
-2.8107
 20
6.6998
 30
0.0000
 41
1.0000
 42
1.0000
 43
1.0000
 50
135.0000
  0
INSERT
  8
29
  2
RECT6750X2250R100
 10
-3.1643
 20
6.3462
 30
0.0000
 41
1.0000
 42
1.0000
 43
1.0000
 50
135.0000
  0
INSERT
  8
29
  2
RECT6750X2250R100
 10
-3.5178
 20
5.9927
 30
0.0000
 41
1.0000
 42
1.0000
 43
1.0000
 50
135.0000
  0
INSERT
  8
29
  2
RECT6750X2250R100
 10
-3.8714
 20
5.6391
 30
0.0000
 41
1.0000
 42
1.0000
 43
1.0000
 50
135.0000
  0
INSERT
  8
29
  2
RECT6750X2250R100
 10
-4.2249
 20
5.2856
 30
0.0000
 41
1.0000
 42
1.0000
 43
1.0000
 50
135.0000
  0
INSERT
  8
29
  2
RECT6750X2250R100
 10
-4.5785
 20
4.9320
 30
0.0000
 41
1.0000
 42
1.0000
 43
1.0000
 50
135.0000
  0
INSERT
  8
29
  2
RECT6750X2250R100
 10
-4.9320
 20
4.5785
 30
0.0000
 41
1.0000
 42
1.0000
 43
1.0000
 50
135.0000
  0
INSERT
  8
29
  2
RECT6750X2250R100
 10
-5.2856
 20
4.2249
 30
0.0000
 41
1.0000
 42
1.0000
 43
1.0000
 50
135.0000
  0
INSERT
  8
29
  2
RECT6750X2250R100
 10
-5.6391
 20
3.8714
 30
0.0000
 41
1.0000
 42
1.0000
 43
1.0000
 50
135.0000
  0
INSERT
  8
29
  2
RECT6750X2250R100
 10
-5.9927
 20
3.5178
 30
0.0000
 41
1.0000
 42
1.0000
 43
1.0000
 50
135.0000
  0
INSERT
  8
29
  2
RECT6750X2250R100
 10
-6.3462
 20
3.1643
 30
0.0000
 41
1.0000
 42
1.0000
 43
1.0000
 50
135.0000
  0
INSERT
  8
29
  2
RECT6750X2250R100
 10
-6.6998
 20
2.8107
 30
0.0000
 41
1.0000
 42
1.0000
 43
1.0000
 50
135.0000
  0
INSERT
  8
29
  2
RECT6750X2250R100
 10
-7.0533
 20
2.4571
 30
0.0000
 41
1.0000
 42
1.0000
 43
1.0000
 50
135.0000
  0
INSERT
  8
29
  2
RECT6750X2250R100
 10
-7.4069
 20
2.1036
 30
0.0000
 41
1.0000
 42
1.0000
 43
1.0000
 50
135.0000
  0
INSERT
  8
29
  2
RECT6750X2250R100
 10
-7.7604
 20
1.7500
 30
0.0000
 41
1.0000
 42
1.0000
 43
1.0000
 50
135.0000
  0
INSERT
  8
29
  2
RECT6750X2250R100
 10
-8.1140
 20
1.3965
 30
0.0000
 41
1.0000
 42
1.0000
 43
1.0000
 50
135.0000
  0
INSERT
  8
29
  2
RECT2250X6750R100
 10
-8.1140
 20
-1.3965
 30
0.0000
 41
1.0000
 42
1.0000
 43
1.0000
 50
135.0000
  0
INSERT
  8
29
  2
RECT2250X6750R100
 10
-7.7604
 20
-1.7500
 30
0.0000
 41
1.0000
 42
1.0000
 43
1.0000
 50
135.0000
  0
INSERT
  8
29
  2
RECT2250X6750R100
 10
-7.4069
 20
-2.1036
 30
0.0000
 41
1.0000
 42
1.0000
 43
1.0000
 50
135.0000
  0
INSERT
  8
29
  2
RECT2250X6750R100
 10
-7.0533
 20
-2.4571
 30
0.0000
 41
1.0000
 42
1.0000
 43
1.0000
 50
135.0000
  0
INSERT
  8
29
  2
RECT2250X6750R100
 10
-6.6998
 20
-2.8107
 30
0.0000
 41
1.0000
 42
1.0000
 43
1.0000
 50
135.0000
  0
INSERT
  8
29
  2
RECT2250X6750R100
 10
-6.3462
 20
-3.1643
 30
0.0000
 41
1.0000
 42
1.0000
 43
1.0000
 50
135.0000
  0
INSERT
  8
29
  2
RECT2250X6750R100
 10
-5.9927
 20
-3.5178
 30
0.0000
 41
1.0000
 42
1.0000
 43
1.0000
 50
135.0000
  0
INSERT
  8
29
  2
RECT2250X6750R100
 10
-5.6391
 20
-3.8714
 30
0.0000
 41
1.0000
 42
1.0000
 43
1.0000
 50
135.0000
  0
INSERT
  8
29
  2
RECT2250X6750R100
 10
-5.2856
 20
-4.2249
 30
0.0000
 41
1.0000
 42
1.0000
 43
1.0000
 50
135.0000
  0
INSERT
  8
29
  2
RECT2250X6750R100
 10
-4.9320
 20
-4.5785
 30
0.0000
 41
1.0000
 42
1.0000
 43
1.0000
 50
135.0000
  0
INSERT
  8
29
  2
RECT2250X6750R100
 10
-4.5785
 20
-4.9320
 30
0.0000
 41
1.0000
 42
1.0000
 43
1.0000
 50
135.0000
  0
INSERT
  8
29
  2
RECT2250X6750R100
 10
-4.2249
 20
-5.2856
 30
0.0000
 41
1.0000
 42
1.0000
 43
1.0000
 50
135.0000
  0
INSERT
  8
29
  2
RECT2250X6750R100
 10
-3.8714
 20
-5.6391
 30
0.0000
 41
1.0000
 42
1.0000
 43
1.0000
 50
135.0000
  0
INSERT
  8
29
  2
RECT2250X6750R100
 10
-3.5178
 20
-5.9927
 30
0.0000
 41
1.0000
 42
1.0000
 43
1.0000
 50
135.0000
  0
INSERT
  8
29
  2
RECT2250X6750R100
 10
-3.1643
 20
-6.3462
 30
0.0000
 41
1.0000
 42
1.0000
 43
1.0000
 50
135.0000
  0
INSERT
  8
29
  2
RECT2250X6750R100
 10
-2.8107
 20
-6.6998
 30
0.0000
 41
1.0000
 42
1.0000
 43
1.0000
 50
135.0000
  0
INSERT
  8
29
  2
RECT2250X6750R100
 10
-2.4571
 20
-7.0533
 30
0.0000
 41
1.0000
 42
1.0000
 43
1.0000
 50
135.0000
  0
INSERT
  8
29
  2
RECT2250X6750R100
 10
-2.1036
 20
-7.4069
 30
0.0000
 41
1.0000
 42
1.0000
 43
1.0000
 50
135.0000
  0
INSERT
  8
29
  2
RECT2250X6750R100
 10
-1.7500
 20
-7.7604
 30
0.0000
 41
1.0000
 42
1.0000
 43
1.0000
 50
135.0000
  0
INSERT
  8
29
  2
RECT2250X6750R100
 10
-1.3965
 20
-8.1140
 30
0.0000
 41
1.0000
 42
1.0000
 43
1.0000
 50
135.0000
  0
INSERT
  8
29
  2
RECT6750X2250R100
 10
1.3965
 20
-8.1140
 30
0.0000
 41
1.0000
 42
1.0000
 43
1.0000
 50
135.0000
  0
INSERT
  8
29
  2
RECT6750X2250R100
 10
1.7500
 20
-7.7604
 30
0.0000
 41
1.0000
 42
1.0000
 43
1.0000
 50
135.0000
  0
INSERT
  8
29
  2
RECT6750X2250R100
 10
2.1036
 20
-7.4069
 30
0.0000
 41
1.0000
 42
1.0000
 43
1.0000
 50
135.0000
  0
INSERT
  8
29
  2
RECT6750X2250R100
 10
2.4571
 20
-7.0533
 30
0.0000
 41
1.0000
 42
1.0000
 43
1.0000
 50
135.0000
  0
INSERT
  8
29
  2
RECT6750X2250R100
 10
2.8107
 20
-6.6998
 30
0.0000
 41
1.0000
 42
1.0000
 43
1.0000
 50
135.0000
  0
INSERT
  8
29
  2
RECT6750X2250R100
 10
3.1643
 20
-6.3462
 30
0.0000
 41
1.0000
 42
1.0000
 43
1.0000
 50
135.0000
  0
INSERT
  8
29
  2
RECT6750X2250R100
 10
3.5178
 20
-5.9927
 30
0.0000
 41
1.0000
 42
1.0000
 43
1.0000
 50
135.0000
  0
INSERT
  8
29
  2
RECT6750X2250R100
 10
3.8714
 20
-5.6391
 30
0.0000
 41
1.0000
 42
1.0000
 43
1.0000
 50
135.0000
  0
INSERT
  8
29
  2
RECT6750X2250R100
 10
4.2249
 20
-5.2856
 30
0.0000
 41
1.0000
 42
1.0000
 43
1.0000
 50
135.0000
  0
INSERT
  8
29
  2
RECT6750X2250R100
 10
4.5785
 20
-4.9320
 30
0.0000
 41
1.0000
 42
1.0000
 43
1.0000
 50
135.0000
  0
INSERT
  8
29
  2
RECT6750X2250R100
 10
4.9320
 20
-4.5785
 30
0.0000
 41
1.0000
 42
1.0000
 43
1.0000
 50
135.0000
  0
INSERT
  8
29
  2
RECT6750X2250R100
 10
5.2856
 20
-4.2249
 30
0.0000
 41
1.0000
 42
1.0000
 43
1.0000
 50
135.0000
  0
INSERT
  8
29
  2
RECT6750X2250R100
 10
5.6391
 20
-3.8714
 30
0.0000
 41
1.0000
 42
1.0000
 43
1.0000
 50
135.0000
  0
INSERT
  8
29
  2
RECT6750X2250R100
 10
5.9927
 20
-3.5178
 30
0.0000
 41
1.0000
 42
1.0000
 43
1.0000
 50
135.0000
  0
INSERT
  8
29
  2
RECT6750X2250R100
 10
6.3462
 20
-3.1643
 30
0.0000
 41
1.0000
 42
1.0000
 43
1.0000
 50
135.0000
  0
INSERT
  8
29
  2
RECT6750X2250R100
 10
6.6998
 20
-2.8107
 30
0.0000
 41
1.0000
 42
1.0000
 43
1.0000
 50
135.0000
  0
INSERT
  8
29
  2
RECT6750X2250R100
 10
7.0533
 20
-2.4571
 30
0.0000
 41
1.0000
 42
1.0000
 43
1.0000
 50
135.0000
  0
INSERT
  8
29
  2
RECT6750X2250R100
 10
7.4069
 20
-2.1036
 30
0.0000
 41
1.0000
 42
1.0000
 43
1.0000
 50
135.0000
  0
INSERT
  8
29
  2
RECT6750X2250R100
 10
7.7604
 20
-1.7500
 30
0.0000
 41
1.0000
 42
1.0000
 43
1.0000
 50
135.0000
  0
INSERT
  8
29
  2
RECT6750X2250R100
 10
8.1140
 20
-1.3965
 30
0.0000
 41
1.0000
 42
1.0000
 43
1.0000
 50
135.0000
  0
LINE
  8
51
 10
24.8396
 20
1.4224
 30
0.0000
 11
26.1604
 21
1.4224
 31
0.0000
  0
LINE
  8
51
 10
26.1604
 20
1.4224
 30
0.0000
 11
26.1604
 21
-1.4224
 31
0.0000
  0
LINE
  8
51
 10
26.1604
 20
-1.4224
 30
0.0000
 11
24.8396
 21
-1.4224
 31
0.0000
  0
LINE
  8
51
 10
24.8396
 20
-1.4224
 30
0.0000
 11
24.8396
 21
1.4224
 31
0.0000
  0
INSERT
  8
51
  2
RECT
 10
24.4967
 20
0.0000
 30
0.0000
 41
0.4572
 42
0.5842
 43
1.0000
 50
90.0000
  0
INSERT
  8
51
  2
RECT
 10
26.5033
 20
0.9398
 30
0.0000
 41
0.4572
 42
0.5842
 43
1.0000
 50
90.0000
  0
INSERT
  8
51
  2
RECT
 10
26.5033
 20
-0.9398
 30
0.0000
 41
0.4572
 42
0.5842
 43
1.0000
 50
90.0000
  0
INSERT
  8
29
  2
RECT5750X7750R30
 10
26.6000
 20
-0.9500
 30
0.0000
 41
1.0000
 42
1.0000
 43
1.0000
 50
90.0000
  0
INSERT
  8
29
  2
RECT5750X7750R30
 10
26.6000
 20
0.9500
 30
0.0000
 41
1.0000
 42
1.0000
 43
1.0000
 50
90.0000
  0
INSERT
  8
29
  2
RECT5750X7750R30
 10
24.4000
 20
0.0000
 30
0.0000
 41
1.0000
 42
1.0000
 43
1.0000
 50
90.0000
  0
LINE
  8
21
 10
-40.6400
 20
-18.4150
 30
0.0000
 11
-40.0050
 21
-19.0500
 31
0.0000
  0
LINE
  8
21
 10
-40.0050
 20
-19.0500
 30
0.0000
 11
-38.7350
 21
-19.0500
 31
0.0000
  0
LINE
  8
21
 10
-38.7350
 20
-19.0500
 30
0.0000
 11
-38.1000
 21
-18.4150
 31
0.0000
  0
LINE
  8
21
 10
-38.1000
 20
-18.4150
 30
0.0000
 11
-37.4650
 21
-19.0500
 31
0.0000
  0
LINE
  8
21
 10
-37.4650
 20
-19.0500
 30
0.0000
 11
-36.1950
 21
-19.0500
 31
0.0000
  0
LINE
  8
21
 10
-36.1950
 20
-19.0500
 30
0.0000
 11
-35.5600
 21
-18.4150
 31
0.0000
  0
LINE
  8
21
 10
-35.5600
 20
-18.4150
 30
0.0000
 11
-34.9250
 21
-19.0500
 31
0.0000
  0
LINE
  8
21
 10
-34.9250
 20
-19.0500
 30
0.0000
 11
-33.6550
 21
-19.0500
 31
0.0000
  0
LINE
  8
21
 10
-33.6550
 20
-19.0500
 30
0.0000
 11
-33.0200
 21
-18.4150
 31
0.0000
  0
LINE
  8
21
 10
-33.0200
 20
-18.4150
 30
0.0000
 11
-32.3850
 21
-19.0500
 31
0.0000
  0
LINE
  8
21
 10
-32.3850
 20
-19.0500
 30
0.0000
 11
-31.1150
 21
-19.0500
 31
0.0000
  0
LINE
  8
21
 10
-31.1150
 20
-19.0500
 30
0.0000
 11
-30.4800
 21
-18.4150
 31
0.0000
  0
LINE
  8
21
 10
-30.4800
 20
-18.4150
 30
0.0000
 11
-29.8450
 21
-19.0500
 31
0.0000
  0
LINE
  8
21
 10
-29.8450
 20
-19.0500
 30
0.0000
 11
-28.5750
 21
-19.0500
 31
0.0000
  0
LINE
  8
21
 10
-28.5750
 20
-19.0500
 30
0.0000
 11
-27.9400
 21
-18.4150
 31
0.0000
  0
LINE
  8
21
 10
-27.9400
 20
-18.4150
 30
0.0000
 11
-27.3050
 21
-19.0500
 31
0.0000
  0
LINE
  8
21
 10
-27.3050
 20
-19.0500
 30
0.0000
 11
-26.0350
 21
-19.0500
 31
0.0000
  0
LINE
  8
21
 10
-26.0350
 20
-19.0500
 30
0.0000
 11
-25.4000
 21
-18.4150
 31
0.0000
  0
LINE
  8
21
 10
-40.6400
 20
-18.4150
 30
0.0000
 11
-40.6400
 21
-14.6050
 31
0.0000
  0
LINE
  8
21
 10
-40.6400
 20
-14.6050
 30
0.0000
 11
-40.0050
 21
-13.9700
 31
0.0000
  0
LINE
  8
21
 10
-40.0050
 20
-13.9700
 30
0.0000
 11
-38.7350
 21
-13.9700
 31
0.0000
  0
LINE
  8
21
 10
-38.7350
 20
-13.9700
 30
0.0000
 11
-38.1000
 21
-14.6050
 31
0.0000
  0
LINE
  8
21
 10
-38.1000
 20
-14.6050
 30
0.0000
 11
-37.4650
 21
-13.9700
 31
0.0000
  0
LINE
  8
21
 10
-37.4650
 20
-13.9700
 30
0.0000
 11
-36.1950
 21
-13.9700
 31
0.0000
  0
LINE
  8
21
 10
-36.1950
 20
-13.9700
 30
0.0000
 11
-35.5600
 21
-14.6050
 31
0.0000
  0
LINE
  8
21
 10
-35.5600
 20
-14.6050
 30
0.0000
 11
-34.9250
 21
-13.9700
 31
0.0000
  0
LINE
  8
21
 10
-34.9250
 20
-13.9700
 30
0.0000
 11
-33.6550
 21
-13.9700
 31
0.0000
  0
LINE
  8
21
 10
-33.6550
 20
-13.9700
 30
0.0000
 11
-33.0200
 21
-14.6050
 31
0.0000
  0
LINE
  8
21
 10
-33.0200
 20
-14.6050
 30
0.0000
 11
-32.3850
 21
-13.9700
 31
0.0000
  0
LINE
  8
21
 10
-32.3850
 20
-13.9700
 30
0.0000
 11
-31.1150
 21
-13.9700
 31
0.0000
  0
LINE
  8
21
 10
-31.1150
 20
-13.9700
 30
0.0000
 11
-30.4800
 21
-14.6050
 31
0.0000
  0
LINE
  8
21
 10
-30.4800
 20
-14.6050
 30
0.0000
 11
-29.8450
 21
-13.9700
 31
0.0000
  0
LINE
  8
21
 10
-29.8450
 20
-13.9700
 30
0.0000
 11
-28.5750
 21
-13.9700
 31
0.0000
  0
LINE
  8
21
 10
-28.5750
 20
-13.9700
 30
0.0000
 11
-27.9400
 21
-14.6050
 31
0.0000
  0
LINE
  8
21
 10
-27.9400
 20
-14.6050
 30
0.0000
 11
-27.3050
 21
-13.9700
 31
0.0000
  0
LINE
  8
21
 10
-27.3050
 20
-13.9700
 30
0.0000
 11
-26.0350
 21
-13.9700
 31
0.0000
  0
LINE
  8
21
 10
-26.0350
 20
-13.9700
 30
0.0000
 11
-25.4000
 21
-14.6050
 31
0.0000
  0
LINE
  8
21
 10
-25.4000
 20
-14.6050
 30
0.0000
 11
-24.7650
 21
-13.9700
 31
0.0000
  0
LINE
  8
21
 10
-24.7650
 20
-13.9700
 30
0.0000
 11
-23.4950
 21
-13.9700
 31
0.0000
  0
LINE
  8
21
 10
-23.4950
 20
-13.9700
 30
0.0000
 11
-22.8600
 21
-14.6050
 31
0.0000
  0
LINE
  8
21
 10
-22.8600
 20
-14.6050
 30
0.0000
 11
-22.2250
 21
-13.9700
 31
0.0000
  0
LINE
  8
21
 10
-22.2250
 20
-13.9700
 30
0.0000
 11
-20.9550
 21
-13.9700
 31
0.0000
  0
LINE
  8
21
 10
-20.9550
 20
-13.9700
 30
0.0000
 11
-20.3200
 21
-14.6050
 31
0.0000
  0
LINE
  8
21
 10
-20.3200
 20
-14.6050
 30
0.0000
 11
-19.6850
 21
-13.9700
 31
0.0000
  0
LINE
  8
21
 10
-19.6850
 20
-13.9700
 30
0.0000
 11
-18.4150
 21
-13.9700
 31
0.0000
  0
LINE
  8
21
 10
-18.4150
 20
-13.9700
 30
0.0000
 11
-17.7800
 21
-14.6050
 31
0.0000
  0
LINE
  8
21
 10
-17.7800
 20
-14.6050
 30
0.0000
 11
-17.1450
 21
-13.9700
 31
0.0000
  0
LINE
  8
21
 10
-17.1450
 20
-13.9700
 30
0.0000
 11
-15.8750
 21
-13.9700
 31
0.0000
  0
LINE
  8
21
 10
-15.8750
 20
-13.9700
 30
0.0000
 11
-15.2400
 21
-14.6050
 31
0.0000
  0
LINE
  8
21
 10
-15.2400
 20
-14.6050
 30
0.0000
 11
-14.6050
 21
-13.9700
 31
0.0000
  0
LINE
  8
21
 10
-14.6050
 20
-13.9700
 30
0.0000
 11
-13.3350
 21
-13.9700
 31
0.0000
  0
LINE
  8
21
 10
-13.3350
 20
-13.9700
 30
0.0000
 11
-12.7000
 21
-14.6050
 31
0.0000
  0
LINE
  8
21
 10
-12.7000
 20
-14.6050
 30
0.0000
 11
-12.0650
 21
-13.9700
 31
0.0000
  0
LINE
  8
21
 10
-12.0650
 20
-13.9700
 30
0.0000
 11
-10.7950
 21
-13.9700
 31
0.0000
  0
LINE
  8
21
 10
-10.1600
 20
-14.6050
 30
0.0000
 11
-10.7950
 21
-13.9700
 31
0.0000
  0
LINE
  8
21
 10
-10.1600
 20
-14.6050
 30
0.0000
 11
-9.5250
 21
-13.9700
 31
0.0000
  0
LINE
  8
21
 10
-8.2550
 20
-13.9700
 30
0.0000
 11
-9.5250
 21
-13.9700
 31
0.0000
  0
LINE
  8
21
 10
-8.2550
 20
-13.9700
 30
0.0000
 11
-7.6200
 21
-14.6050
 31
0.0000
  0
LINE
  8
21
 10
-7.6200
 20
-14.6050
 30
0.0000
 11
-6.9850
 21
-13.9700
 31
0.0000
  0
LINE
  8
21
 10
-5.7150
 20
-13.9700
 30
0.0000
 11
-6.9850
 21
-13.9700
 31
0.0000
  0
LINE
  8
21
 10
-5.7150
 20
-13.9700
 30
0.0000
 11
-5.0800
 21
-14.6050
 31
0.0000
  0
LINE
  8
21
 10
-5.0800
 20
-14.6050
 30
0.0000
 11
-4.4450
 21
-13.9700
 31
0.0000
  0
LINE
  8
21
 10
-3.1750
 20
-13.9700
 30
0.0000
 11
-4.4450
 21
-13.9700
 31
0.0000
  0
LINE
  8
21
 10
-3.1750
 20
-13.9700
 30
0.0000
 11
-2.5400
 21
-14.6050
 31
0.0000
  0
LINE
  8
21
 10
-2.5400
 20
-14.6050
 30
0.0000
 11
-1.9050
 21
-13.9700
 31
0.0000
  0
LINE
  8
21
 10
-0.6350
 20
-13.9700
 30
0.0000
 11
-1.9050
 21
-13.9700
 31
0.0000
  0
LINE
  8
21
 10
-0.6350
 20
-13.9700
 30
0.0000
 11
0.0000
 21
-14.6050
 31
0.0000
  0
LINE
  8
21
 10
0.0000
 20
-14.6050
 30
0.0000
 11
0.6350
 21
-13.9700
 31
0.0000
  0
LINE
  8
21
 10
1.9050
 20
-13.9700
 30
0.0000
 11
0.6350
 21
-13.9700
 31
0.0000
  0
LINE
  8
21
 10
1.9050
 20
-13.9700
 30
0.0000
 11
2.5400
 21
-14.6050
 31
0.0000
  0
LINE
  8
21
 10
2.5400
 20
-14.6050
 30
0.0000
 11
3.1750
 21
-13.9700
 31
0.0000
  0
LINE
  8
21
 10
4.4450
 20
-13.9700
 30
0.0000
 11
3.1750
 21
-13.9700
 31
0.0000
  0
LINE
  8
21
 10
4.4450
 20
-13.9700
 30
0.0000
 11
5.0800
 21
-14.6050
 31
0.0000
  0
LINE
  8
21
 10
5.0800
 20
-14.6050
 30
0.0000
 11
5.7150
 21
-13.9700
 31
0.0000
  0
LINE
  8
21
 10
6.9850
 20
-13.9700
 30
0.0000
 11
5.7150
 21
-13.9700
 31
0.0000
  0
LINE
  8
21
 10
6.9850
 20
-13.9700
 30
0.0000
 11
7.6200
 21
-14.6050
 31
0.0000
  0
LINE
  8
21
 10
7.6200
 20
-18.4150
 30
0.0000
 11
6.9850
 21
-19.0500
 31
0.0000
  0
LINE
  8
21
 10
6.9850
 20
-19.0500
 30
0.0000
 11
5.7150
 21
-19.0500
 31
0.0000
  0
LINE
  8
21
 10
5.0800
 20
-18.4150
 30
0.0000
 11
5.7150
 21
-19.0500
 31
0.0000
  0
LINE
  8
21
 10
5.0800
 20
-18.4150
 30
0.0000
 11
4.4450
 21
-19.0500
 31
0.0000
  0
LINE
  8
21
 10
4.4450
 20
-19.0500
 30
0.0000
 11
3.1750
 21
-19.0500
 31
0.0000
  0
LINE
  8
21
 10
2.5400
 20
-18.4150
 30
0.0000
 11
3.1750
 21
-19.0500
 31
0.0000
  0
LINE
  8
21
 10
2.5400
 20
-18.4150
 30
0.0000
 11
1.9050
 21
-19.0500
 31
0.0000
  0
LINE
  8
21
 10
1.9050
 20
-19.0500
 30
0.0000
 11
0.6350
 21
-19.0500
 31
0.0000
  0
LINE
  8
21
 10
0.0000
 20
-18.4150
 30
0.0000
 11
0.6350
 21
-19.0500
 31
0.0000
  0
LINE
  8
21
 10
0.0000
 20
-18.4150
 30
0.0000
 11
-0.6350
 21
-19.0500
 31
0.0000
  0
LINE
  8
21
 10
-1.9050
 20
-19.0500
 30
0.0000
 11
-0.6350
 21
-19.0500
 31
0.0000
  0
LINE
  8
21
 10
-1.9050
 20
-19.0500
 30
0.0000
 11
-2.5400
 21
-18.4150
 31
0.0000
  0
LINE
  8
21
 10
-2.5400
 20
-18.4150
 30
0.0000
 11
-3.1750
 21
-19.0500
 31
0.0000
  0
LINE
  8
21
 10
-4.4450
 20
-19.0500
 30
0.0000
 11
-3.1750
 21
-19.0500
 31
0.0000
  0
LINE
  8
21
 10
-4.4450
 20
-19.0500
 30
0.0000
 11
-5.0800
 21
-18.4150
 31
0.0000
  0
LINE
  8
21
 10
-5.0800
 20
-18.4150
 30
0.0000
 11
-5.7150
 21
-19.0500
 31
0.0000
  0
LINE
  8
21
 10
-5.7150
 20
-19.0500
 30
0.0000
 11
-6.9850
 21
-19.0500
 31
0.0000
  0
LINE
  8
21
 10
-7.6200
 20
-18.4150
 30
0.0000
 11
-6.9850
 21
-19.0500
 31
0.0000
  0
LINE
  8
21
 10
-7.6200
 20
-18.4150
 30
0.0000
 11
-8.2550
 21
-19.0500
 31
0.0000
  0
LINE
  8
21
 10
-8.2550
 20
-19.0500
 30
0.0000
 11
-9.5250
 21
-19.0500
 31
0.0000
  0
LINE
  8
21
 10
-10.1600
 20
-18.4150
 30
0.0000
 11
-9.5250
 21
-19.0500
 31
0.0000
  0
LINE
  8
21
 10
-10.1600
 20
-18.4150
 30
0.0000
 11
-10.7950
 21
-19.0500
 31
0.0000
  0
LINE
  8
21
 10
-10.7950
 20
-19.0500
 30
0.0000
 11
-12.0650
 21
-19.0500
 31
0.0000
  0
LINE
  8
21
 10
-12.7000
 20
-18.4150
 30
0.0000
 11
-12.0650
 21
-19.0500
 31
0.0000
  0
LINE
  8
21
 10
-12.7000
 20
-18.4150
 30
0.0000
 11
-13.3350
 21
-19.0500
 31
0.0000
  0
LINE
  8
21
 10
-13.3350
 20
-19.0500
 30
0.0000
 11
-14.6050
 21
-19.0500
 31
0.0000
  0
LINE
  8
21
 10
-15.2400
 20
-18.4150
 30
0.0000
 11
-14.6050
 21
-19.0500
 31
0.0000
  0
LINE
  8
21
 10
-15.2400
 20
-18.4150
 30
0.0000
 11
-15.8750
 21
-19.0500
 31
0.0000
  0
LINE
  8
21
 10
-15.8750
 20
-19.0500
 30
0.0000
 11
-17.1450
 21
-19.0500
 31
0.0000
  0
LINE
  8
21
 10
-17.7800
 20
-18.4150
 30
0.0000
 11
-17.1450
 21
-19.0500
 31
0.0000
  0
LINE
  8
21
 10
-17.7800
 20
-18.4150
 30
0.0000
 11
-18.4150
 21
-19.0500
 31
0.0000
  0
LINE
  8
21
 10
-18.4150
 20
-19.0500
 30
0.0000
 11
-19.6850
 21
-19.0500
 31
0.0000
  0
LINE
  8
21
 10
-20.3200
 20
-18.4150
 30
0.0000
 11
-19.6850
 21
-19.0500
 31
0.0000
  0
LINE
  8
21
 10
-20.3200
 20
-18.4150
 30
0.0000
 11
-20.9550
 21
-19.0500
 31
0.0000
  0
LINE
  8
21
 10
-20.9550
 20
-19.0500
 30
0.0000
 11
-22.2250
 21
-19.0500
 31
0.0000
  0
LINE
  8
21
 10
-22.8600
 20
-18.4150
 30
0.0000
 11
-22.2250
 21
-19.0500
 31
0.0000
  0
LINE
  8
21
 10
-22.8600
 20
-18.4150
 30
0.0000
 11
-23.4950
 21
-19.0500
 31
0.0000
  0
LINE
  8
21
 10
-23.4950
 20
-19.0500
 30
0.0000
 11
-24.7650
 21
-19.0500
 31
0.0000
  0
LINE
  8
21
 10
-25.4000
 20
-18.4150
 30
0.0000
 11
-24.7650
 21
-19.0500
 31
0.0000
  0
LINE
  8
21
 10
-38.1000
 20
-14.6050
 30
0.0000
 11
-38.1000
 21
-18.4150
 31
0.0000
  0
LINE
  8
21
 10
-35.5600
 20
-14.6050
 30
0.0000
 11
-35.5600
 21
-18.4150
 31
0.0000
  0
LINE
  8
21
 10
-33.0200
 20
-14.6050
 30
0.0000
 11
-33.0200
 21
-18.4150
 31
0.0000
  0
LINE
  8
21
 10
-30.4800
 20
-14.6050
 30
0.0000
 11
-30.4800
 21
-18.4150
 31
0.0000
  0
LINE
  8
21
 10
-27.9400
 20
-14.6050
 30
0.0000
 11
-27.9400
 21
-18.4150
 31
0.0000
  0
LINE
  8
21
 10
-25.4000
 20
-14.6050
 30
0.0000
 11
-25.4000
 21
-18.4150
 31
0.0000
  0
LINE
  8
21
 10
-22.8600
 20
-14.6050
 30
0.0000
 11
-22.8600
 21
-18.4150
 31
0.0000
  0
LINE
  8
21
 10
-20.3200
 20
-14.6050
 30
0.0000
 11
-20.3200
 21
-18.4150
 31
0.0000
  0
LINE
  8
21
 10
-17.7800
 20
-14.6050
 30
0.0000
 11
-17.7800
 21
-18.4150
 31
0.0000
  0
LINE
  8
21
 10
-15.2400
 20
-14.6050
 30
0.0000
 11
-15.2400
 21
-18.4150
 31
0.0000
  0
LINE
  8
21
 10
-12.7000
 20
-14.6050
 30
0.0000
 11
-12.7000
 21
-18.4150
 31
0.0000
  0
LINE
  8
21
 10
-10.1600
 20
-14.6050
 30
0.0000
 11
-10.1600
 21
-18.4150
 31
0.0000
  0
LINE
  8
21
 10
-7.6200
 20
-14.6050
 30
0.0000
 11
-7.6200
 21
-18.4150
 31
0.0000
  0
LINE
  8
21
 10
-5.0800
 20
-14.6050
 30
0.0000
 11
-5.0800
 21
-18.4150
 31
0.0000
  0
LINE
  8
21
 10
-2.5400
 20
-14.6050
 30
0.0000
 11
-2.5400
 21
-18.4150
 31
0.0000
  0
LINE
  8
21
 10
0.0000
 20
-14.6050
 30
0.0000
 11
0.0000
 21
-18.4150
 31
0.0000
  0
LINE
  8
21
 10
2.5400
 20
-14.6050
 30
0.0000
 11
2.5400
 21
-18.4150
 31
0.0000
  0
LINE
  8
21
 10
5.0800
 20
-14.6050
 30
0.0000
 11
5.0800
 21
-18.4150
 31
0.0000
  0
LINE
  8
21
 10
7.6200
 20
-14.6050
 30
0.0000
 11
7.6200
 21
-18.4150
 31
0.0000
  0
LINE
  8
21
 10
7.6200
 20
-14.6050
 30
0.0000
 11
8.2550
 21
-13.9700
 31
0.0000
  0
LINE
  8
21
 10
9.5250
 20
-13.9700
 30
0.0000
 11
8.2550
 21
-13.9700
 31
0.0000
  0
LINE
  8
21
 10
9.5250
 20
-13.9700
 30
0.0000
 11
10.1600
 21
-14.6050
 31
0.0000
  0
LINE
  8
21
 10
10.1600
 20
-18.4150
 30
0.0000
 11
9.5250
 21
-19.0500
 31
0.0000
  0
LINE
  8
21
 10
9.5250
 20
-19.0500
 30
0.0000
 11
8.2550
 21
-19.0500
 31
0.0000
  0
LINE
  8
21
 10
7.6200
 20
-18.4150
 30
0.0000
 11
8.2550
 21
-19.0500
 31
0.0000
  0
LINE
  8
21
 10
10.1600
 20
-14.6050
 30
0.0000
 11
10.1600
 21
-18.4150
 31
0.0000
  0
LINE
  8
21
 10
10.1600
 20
-14.6050
 30
0.0000
 11
10.7950
 21
-13.9700
 31
0.0000
  0
LINE
  8
21
 10
12.0650
 20
-13.9700
 30
0.0000
 11
10.7950
 21
-13.9700
 31
0.0000
  0
LINE
  8
21
 10
12.0650
 20
-13.9700
 30
0.0000
 11
12.7000
 21
-14.6050
 31
0.0000
  0
LINE
  8
21
 10
12.7000
 20
-18.4150
 30
0.0000
 11
12.0650
 21
-19.0500
 31
0.0000
  0
LINE
  8
21
 10
12.0650
 20
-19.0500
 30
0.0000
 11
10.7950
 21
-19.0500
 31
0.0000
  0
LINE
  8
21
 10
10.1600
 20
-18.4150
 30
0.0000
 11
10.7950
 21
-19.0500
 31
0.0000
  0
LINE
  8
21
 10
12.7000
 20
-14.6050
 30
0.0000
 11
12.7000
 21
-18.4150
 31
0.0000
  0
LINE
  8
21
 10
12.7000
 20
-14.6050
 30
0.0000
 11
13.3350
 21
-13.9700
 31
0.0000
  0
LINE
  8
21
 10
14.6050
 20
-13.9700
 30
0.0000
 11
13.3350
 21
-13.9700
 31
0.0000
  0
LINE
  8
21
 10
14.6050
 20
-13.9700
 30
0.0000
 11
15.2400
 21
-14.6050
 31
0.0000
  0
LINE
  8
21
 10
15.2400
 20
-18.4150
 30
0.0000
 11
14.6050
 21
-19.0500
 31
0.0000
  0
LINE
  8
21
 10
14.6050
 20
-19.0500
 30
0.0000
 11
13.3350
 21
-19.0500
 31
0.0000
  0
LINE
  8
21
 10
12.7000
 20
-18.4150
 30
0.0000
 11
13.3350
 21
-19.0500
 31
0.0000
  0
LINE
  8
21
 10
15.2400
 20
-14.6050
 30
0.0000
 11
15.2400
 21
-18.4150
 31
0.0000
  0
LINE
  8
21
 10
15.2400
 20
-14.6050
 30
0.0000
 11
15.8750
 21
-13.9700
 31
0.0000
  0
LINE
  8
21
 10
17.1450
 20
-13.9700
 30
0.0000
 11
15.8750
 21
-13.9700
 31
0.0000
  0
LINE
  8
21
 10
17.1450
 20
-13.9700
 30
0.0000
 11
17.7800
 21
-14.6050
 31
0.0000
  0
LINE
  8
21
 10
17.7800
 20
-18.4150
 30
0.0000
 11
17.1450
 21
-19.0500
 31
0.0000
  0
LINE
  8
21
 10
17.1450
 20
-19.0500
 30
0.0000
 11
15.8750
 21
-19.0500
 31
0.0000
  0
LINE
  8
21
 10
15.2400
 20
-18.4150
 30
0.0000
 11
15.8750
 21
-19.0500
 31
0.0000
  0
LINE
  8
21
 10
17.7800
 20
-14.6050
 30
0.0000
 11
17.7800
 21
-18.4150
 31
0.0000
  0
LINE
  8
21
 10
17.7800
 20
-14.6050
 30
0.0000
 11
18.4150
 21
-13.9700
 31
0.0000
  0
LINE
  8
21
 10
19.6850
 20
-13.9700
 30
0.0000
 11
18.4150
 21
-13.9700
 31
0.0000
  0
LINE
  8
21
 10
19.6850
 20
-13.9700
 30
0.0000
 11
20.3200
 21
-14.6050
 31
0.0000
  0
LINE
  8
21
 10
20.3200
 20
-18.4150
 30
0.0000
 11
19.6850
 21
-19.0500
 31
0.0000
  0
LINE
  8
21
 10
19.6850
 20
-19.0500
 30
0.0000
 11
18.4150
 21
-19.0500
 31
0.0000
  0
LINE
  8
21
 10
17.7800
 20
-18.4150
 30
0.0000
 11
18.4150
 21
-19.0500
 31
0.0000
  0
LINE
  8
21
 10
20.3200
 20
-14.6050
 30
0.0000
 11
20.3200
 21
-18.4150
 31
0.0000
  0
LINE
  8
21
 10
20.3200
 20
-14.6050
 30
0.0000
 11
20.9550
 21
-13.9700
 31
0.0000
  0
LINE
  8
21
 10
22.2250
 20
-13.9700
 30
0.0000
 11
20.9550
 21
-13.9700
 31
0.0000
  0
LINE
  8
21
 10
22.2250
 20
-13.9700
 30
0.0000
 11
22.8600
 21
-14.6050
 31
0.0000
  0
LINE
  8
21
 10
22.8600
 20
-18.4150
 30
0.0000
 11
22.2250
 21
-19.0500
 31
0.0000
  0
LINE
  8
21
 10
22.2250
 20
-19.0500
 30
0.0000
 11
20.9550
 21
-19.0500
 31
0.0000
  0
LINE
  8
21
 10
20.3200
 20
-18.4150
 30
0.0000
 11
20.9550
 21
-19.0500
 31
0.0000
  0
LINE
  8
21
 10
22.8600
 20
-14.6050
 30
0.0000
 11
22.8600
 21
-18.4150
 31
0.0000
  0
LINE
  8
21
 10
22.8600
 20
-14.6050
 30
0.0000
 11
23.4950
 21
-13.9700
 31
0.0000
  0
LINE
  8
21
 10
24.7650
 20
-13.9700
 30
0.0000
 11
23.4950
 21
-13.9700
 31
0.0000
  0
LINE
  8
21
 10
24.7650
 20
-13.9700
 30
0.0000
 11
25.4000
 21
-14.6050
 31
0.0000
  0
LINE
  8
21
 10
25.4000
 20
-18.4150
 30
0.0000
 11
24.7650
 21
-19.0500
 31
0.0000
  0
LINE
  8
21
 10
24.7650
 20
-19.0500
 30
0.0000
 11
23.4950
 21
-19.0500
 31
0.0000
  0
LINE
  8
21
 10
22.8600
 20
-18.4150
 30
0.0000
 11
23.4950
 21
-19.0500
 31
0.0000
  0
LINE
  8
21
 10
25.4000
 20
-14.6050
 30
0.0000
 11
25.4000
 21
-18.4150
 31
0.0000
  0
LINE
  8
21
 10
25.4000
 20
-14.6050
 30
0.0000
 11
26.0350
 21
-13.9700
 31
0.0000
  0
LINE
  8
21
 10
27.3050
 20
-13.9700
 30
0.0000
 11
26.0350
 21
-13.9700
 31
0.0000
  0
LINE
  8
21
 10
27.3050
 20
-13.9700
 30
0.0000
 11
27.9400
 21
-14.6050
 31
0.0000
  0
LINE
  8
21
 10
27.9400
 20
-18.4150
 30
0.0000
 11
27.3050
 21
-19.0500
 31
0.0000
  0
LINE
  8
21
 10
27.3050
 20
-19.0500
 30
0.0000
 11
26.0350
 21
-19.0500
 31
0.0000
  0
LINE
  8
21
 10
25.4000
 20
-18.4150
 30
0.0000
 11
26.0350
 21
-19.0500
 31
0.0000
  0
LINE
  8
21
 10
27.9400
 20
-14.6050
 30
0.0000
 11
27.9400
 21
-18.4150
 31
0.0000
  0
LINE
  8
21
 10
27.9400
 20
-14.6050
 30
0.0000
 11
28.5750
 21
-13.9700
 31
0.0000
  0
LINE
  8
21
 10
29.8450
 20
-13.9700
 30
0.0000
 11
28.5750
 21
-13.9700
 31
0.0000
  0
LINE
  8
21
 10
29.8450
 20
-13.9700
 30
0.0000
 11
30.4800
 21
-14.6050
 31
0.0000
  0
LINE
  8
21
 10
30.4800
 20
-18.4150
 30
0.0000
 11
29.8450
 21
-19.0500
 31
0.0000
  0
LINE
  8
21
 10
29.8450
 20
-19.0500
 30
0.0000
 11
28.5750
 21
-19.0500
 31
0.0000
  0
LINE
  8
21
 10
27.9400
 20
-18.4150
 30
0.0000
 11
28.5750
 21
-19.0500
 31
0.0000
  0
LINE
  8
21
 10
30.4800
 20
-14.6050
 30
0.0000
 11
30.4800
 21
-18.4150
 31
0.0000
  0
LINE
  8
21
 10
30.4800
 20
-14.6050
 30
0.0000
 11
31.1150
 21
-13.9700
 31
0.0000
  0
LINE
  8
21
 10
32.3850
 20
-13.9700
 30
0.0000
 11
31.1150
 21
-13.9700
 31
0.0000
  0
LINE
  8
21
 10
32.3850
 20
-13.9700
 30
0.0000
 11
33.0200
 21
-14.6050
 31
0.0000
  0
LINE
  8
21
 10
33.0200
 20
-18.4150
 30
0.0000
 11
32.3850
 21
-19.0500
 31
0.0000
  0
LINE
  8
21
 10
32.3850
 20
-19.0500
 30
0.0000
 11
31.1150
 21
-19.0500
 31
0.0000
  0
LINE
  8
21
 10
30.4800
 20
-18.4150
 30
0.0000
 11
31.1150
 21
-19.0500
 31
0.0000
  0
LINE
  8
21
 10
33.0200
 20
-14.6050
 30
0.0000
 11
33.0200
 21
-18.4150
 31
0.0000
  0
LINE
  8
21
 10
33.0200
 20
-14.6050
 30
0.0000
 11
33.6550
 21
-13.9700
 31
0.0000
  0
LINE
  8
21
 10
34.9250
 20
-13.9700
 30
0.0000
 11
33.6550
 21
-13.9700
 31
0.0000
  0
LINE
  8
21
 10
34.9250
 20
-13.9700
 30
0.0000
 11
35.5600
 21
-14.6050
 31
0.0000
  0
LINE
  8
21
 10
35.5600
 20
-18.4150
 30
0.0000
 11
34.9250
 21
-19.0500
 31
0.0000
  0
LINE
  8
21
 10
34.9250
 20
-19.0500
 30
0.0000
 11
33.6550
 21
-19.0500
 31
0.0000
  0
LINE
  8
21
 10
33.0200
 20
-18.4150
 30
0.0000
 11
33.6550
 21
-19.0500
 31
0.0000
  0
LINE
  8
21
 10
35.5600
 20
-14.6050
 30
0.0000
 11
35.5600
 21
-18.4150
 31
0.0000
  0
INSERT
  8
51
  2
RECT
 10
-39.3700
 20
-17.7800
 30
0.0000
 41
0.5080
 42
0.5080
 43
1.0000
 50
0.0000
  0
INSERT
  8
51
  2
RECT
 10
-39.3700
 20
-15.2400
 30
0.0000
 41
0.5080
 42
0.5080
 43
1.0000
 50
0.0000
  0
INSERT
  8
51
  2
RECT
 10
-36.8300
 20
-15.2400
 30
0.0000
 41
0.5080
 42
0.5080
 43
1.0000
 50
0.0000
  0
INSERT
  8
51
  2
RECT
 10
-36.8300
 20
-17.7800
 30
0.0000
 41
0.5080
 42
0.5080
 43
1.0000
 50
0.0000
  0
INSERT
  8
51
  2
RECT
 10
-34.2900
 20
-15.2400
 30
0.0000
 41
0.5080
 42
0.5080
 43
1.0000
 50
0.0000
  0
INSERT
  8
51
  2
RECT
 10
-34.2900
 20
-17.7800
 30
0.0000
 41
0.5080
 42
0.5080
 43
1.0000
 50
0.0000
  0
INSERT
  8
51
  2
RECT
 10
-31.7500
 20
-15.2400
 30
0.0000
 41
0.5080
 42
0.5080
 43
1.0000
 50
0.0000
  0
INSERT
  8
51
  2
RECT
 10
-29.2100
 20
-15.2400
 30
0.0000
 41
0.5080
 42
0.5080
 43
1.0000
 50
0.0000
  0
INSERT
  8
51
  2
RECT
 10
-26.6700
 20
-15.2400
 30
0.0000
 41
0.5080
 42
0.5080
 43
1.0000
 50
0.0000
  0
INSERT
  8
51
  2
RECT
 10
-31.7500
 20
-17.7800
 30
0.0000
 41
0.5080
 42
0.5080
 43
1.0000
 50
0.0000
  0
INSERT
  8
51
  2
RECT
 10
-29.2100
 20
-17.7800
 30
0.0000
 41
0.5080
 42
0.5080
 43
1.0000
 50
0.0000
  0
INSERT
  8
51
  2
RECT
 10
-26.6700
 20
-17.7800
 30
0.0000
 41
0.5080
 42
0.5080
 43
1.0000
 50
0.0000
  0
INSERT
  8
51
  2
RECT
 10
-24.1300
 20
-15.2400
 30
0.0000
 41
0.5080
 42
0.5080
 43
1.0000
 50
0.0000
  0
INSERT
  8
51
  2
RECT
 10
-24.1300
 20
-17.7800
 30
0.0000
 41
0.5080
 42
0.5080
 43
1.0000
 50
0.0000
  0
INSERT
  8
51
  2
RECT
 10
-21.5900
 20
-15.2400
 30
0.0000
 41
0.5080
 42
0.5080
 43
1.0000
 50
0.0000
  0
INSERT
  8
51
  2
RECT
 10
-21.5900
 20
-17.7800
 30
0.0000
 41
0.5080
 42
0.5080
 43
1.0000
 50
0.0000
  0
INSERT
  8
51
  2
RECT
 10
-19.0500
 20
-15.2400
 30
0.0000
 41
0.5080
 42
0.5080
 43
1.0000
 50
0.0000
  0
INSERT
  8
51
  2
RECT
 10
-19.0500
 20
-17.7800
 30
0.0000
 41
0.5080
 42
0.5080
 43
1.0000
 50
0.0000
  0
INSERT
  8
51
  2
RECT
 10
-16.5100
 20
-15.2400
 30
0.0000
 41
0.5080
 42
0.5080
 43
1.0000
 50
0.0000
  0
INSERT
  8
51
  2
RECT
 10
-16.5100
 20
-17.7800
 30
0.0000
 41
0.5080
 42
0.5080
 43
1.0000
 50
0.0000
  0
INSERT
  8
51
  2
RECT
 10
-13.9700
 20
-15.2400
 30
0.0000
 41
0.5080
 42
0.5080
 43
1.0000
 50
0.0000
  0
INSERT
  8
51
  2
RECT
 10
-13.9700
 20
-17.7800
 30
0.0000
 41
0.5080
 42
0.5080
 43
1.0000
 50
0.0000
  0
INSERT
  8
51
  2
RECT
 10
-11.4300
 20
-15.2400
 30
0.0000
 41
0.5080
 42
0.5080
 43
1.0000
 50
0.0000
  0
INSERT
  8
51
  2
RECT
 10
-11.4300
 20
-17.7800
 30
0.0000
 41
0.5080
 42
0.5080
 43
1.0000
 50
0.0000
  0
INSERT
  8
51
  2
RECT
 10
-8.8900
 20
-15.2400
 30
0.0000
 41
0.5080
 42
0.5080
 43
1.0000
 50
0.0000
  0
INSERT
  8
51
  2
RECT
 10
-8.8900
 20
-17.7800
 30
0.0000
 41
0.5080
 42
0.5080
 43
1.0000
 50
0.0000
  0
INSERT
  8
51
  2
RECT
 10
-6.3500
 20
-15.2400
 30
0.0000
 41
0.5080
 42
0.5080
 43
1.0000
 50
0.0000
  0
INSERT
  8
51
  2
RECT
 10
-6.3500
 20
-17.7800
 30
0.0000
 41
0.5080
 42
0.5080
 43
1.0000
 50
0.0000
  0
INSERT
  8
51
  2
RECT
 10
-3.8100
 20
-15.2400
 30
0.0000
 41
0.5080
 42
0.5080
 43
1.0000
 50
0.0000
  0
INSERT
  8
51
  2
RECT
 10
-3.8100
 20
-17.7800
 30
0.0000
 41
0.5080
 42
0.5080
 43
1.0000
 50
0.0000
  0
INSERT
  8
51
  2
RECT
 10
-1.2700
 20
-15.2400
 30
0.0000
 41
0.5080
 42
0.5080
 43
1.0000
 50
0.0000
  0
INSERT
  8
51
  2
RECT
 10
-1.2700
 20
-17.7800
 30
0.0000
 41
0.5080
 42
0.5080
 43
1.0000
 50
0.0000
  0
INSERT
  8
51
  2
RECT
 10
1.2700
 20
-15.2400
 30
0.0000
 41
0.5080
 42
0.5080
 43
1.0000
 50
0.0000
  0
INSERT
  8
51
  2
RECT
 10
1.2700
 20
-17.7800
 30
0.0000
 41
0.5080
 42
0.5080
 43
1.0000
 50
0.0000
  0
INSERT
  8
51
  2
RECT
 10
3.8100
 20
-15.2400
 30
0.0000
 41
0.5080
 42
0.5080
 43
1.0000
 50
0.0000
  0
INSERT
  8
51
  2
RECT
 10
3.8100
 20
-17.7800
 30
0.0000
 41
0.5080
 42
0.5080
 43
1.0000
 50
0.0000
  0
INSERT
  8
51
  2
RECT
 10
6.3500
 20
-15.2400
 30
0.0000
 41
0.5080
 42
0.5080
 43
1.0000
 50
0.0000
  0
INSERT
  8
51
  2
RECT
 10
6.3500
 20
-17.7800
 30
0.0000
 41
0.5080
 42
0.5080
 43
1.0000
 50
0.0000
  0
INSERT
  8
51
  2
RECT
 10
8.8900
 20
-15.2400
 30
0.0000
 41
0.5080
 42
0.5080
 43
1.0000
 50
0.0000
  0
INSERT
  8
51
  2
RECT
 10
8.8900
 20
-17.7800
 30
0.0000
 41
0.5080
 42
0.5080
 43
1.0000
 50
0.0000
  0
INSERT
  8
51
  2
RECT
 10
11.4300
 20
-15.2400
 30
0.0000
 41
0.5080
 42
0.5080
 43
1.0000
 50
0.0000
  0
INSERT
  8
51
  2
RECT
 10
11.4300
 20
-17.7800
 30
0.0000
 41
0.5080
 42
0.5080
 43
1.0000
 50
0.0000
  0
INSERT
  8
51
  2
RECT
 10
13.9700
 20
-15.2400
 30
0.0000
 41
0.5080
 42
0.5080
 43
1.0000
 50
0.0000
  0
INSERT
  8
51
  2
RECT
 10
13.9700
 20
-17.7800
 30
0.0000
 41
0.5080
 42
0.5080
 43
1.0000
 50
0.0000
  0
INSERT
  8
51
  2
RECT
 10
16.5100
 20
-15.2400
 30
0.0000
 41
0.5080
 42
0.5080
 43
1.0000
 50
0.0000
  0
INSERT
  8
51
  2
RECT
 10
16.5100
 20
-17.7800
 30
0.0000
 41
0.5080
 42
0.5080
 43
1.0000
 50
0.0000
  0
INSERT
  8
51
  2
RECT
 10
19.0500
 20
-15.2400
 30
0.0000
 41
0.5080
 42
0.5080
 43
1.0000
 50
0.0000
  0
INSERT
  8
51
  2
RECT
 10
19.0500
 20
-17.7800
 30
0.0000
 41
0.5080
 42
0.5080
 43
1.0000
 50
0.0000
  0
INSERT
  8
51
  2
RECT
 10
21.5900
 20
-15.2400
 30
0.0000
 41
0.5080
 42
0.5080
 43
1.0000
 50
0.0000
  0
INSERT
  8
51
  2
RECT
 10
21.5900
 20
-17.7800
 30
0.0000
 41
0.5080
 42
0.5080
 43
1.0000
 50
0.0000
  0
INSERT
  8
51
  2
RECT
 10
24.1300
 20
-15.2400
 30
0.0000
 41
0.5080
 42
0.5080
 43
1.0000
 50
0.0000
  0
INSERT
  8
51
  2
RECT
 10
24.1300
 20
-17.7800
 30
0.0000
 41
0.5080
 42
0.5080
 43
1.0000
 50
0.0000
  0
INSERT
  8
51
  2
RECT
 10
26.6700
 20
-15.2400
 30
0.0000
 41
0.5080
 42
0.5080
 43
1.0000
 50
0.0000
  0
INSERT
  8
51
  2
RECT
 10
26.6700
 20
-17.7800
 30
0.0000
 41
0.5080
 42
0.5080
 43
1.0000
 50
0.0000
  0
INSERT
  8
51
  2
RECT
 10
29.2100
 20
-15.2400
 30
0.0000
 41
0.5080
 42
0.5080
 43
1.0000
 50
0.0000
  0
INSERT
  8
51
  2
RECT
 10
29.2100
 20
-17.7800
 30
0.0000
 41
0.5080
 42
0.5080
 43
1.0000
 50
0.0000
  0
INSERT
  8
51
  2
RECT
 10
31.7500
 20
-15.2400
 30
0.0000
 41
0.5080
 42
0.5080
 43
1.0000
 50
0.0000
  0
INSERT
  8
51
  2
RECT
 10
31.7500
 20
-17.7800
 30
0.0000
 41
0.5080
 42
0.5080
 43
1.0000
 50
0.0000
  0
INSERT
  8
51
  2
RECT
 10
34.2900
 20
-15.2400
 30
0.0000
 41
0.5080
 42
0.5080
 43
1.0000
 50
0.0000
  0
INSERT
  8
51
  2
RECT
 10
34.2900
 20
-17.7800
 30
0.0000
 41
0.5080
 42
0.5080
 43
1.0000
 50
0.0000
  0
INSERT
  8
29
  2
OCTAGONP
 10
-39.3700
 20
-17.7800
 30
0.0000
 41
1.5660
 42
1.5660
 43
1.0000
 50
0.0000
  0
INSERT
  8
29
  2
OCTAGONP
 10
-39.3700
 20
-15.2400
 30
0.0000
 41
1.5660
 42
1.5660
 43
1.0000
 50
0.0000
  0
INSERT
  8
29
  2
OCTAGONP
 10
-36.8300
 20
-17.7800
 30
0.0000
 41
1.5660
 42
1.5660
 43
1.0000
 50
0.0000
  0
INSERT
  8
29
  2
OCTAGONP
 10
-36.8300
 20
-15.2400
 30
0.0000
 41
1.5660
 42
1.5660
 43
1.0000
 50
0.0000
  0
INSERT
  8
29
  2
OCTAGONP
 10
-34.2900
 20
-17.7800
 30
0.0000
 41
1.5660
 42
1.5660
 43
1.0000
 50
0.0000
  0
INSERT
  8
29
  2
OCTAGONP
 10
-34.2900
 20
-15.2400
 30
0.0000
 41
1.5660
 42
1.5660
 43
1.0000
 50
0.0000
  0
INSERT
  8
29
  2
OCTAGONP
 10
-31.7500
 20
-17.7800
 30
0.0000
 41
1.5660
 42
1.5660
 43
1.0000
 50
0.0000
  0
INSERT
  8
29
  2
OCTAGONP
 10
-31.7500
 20
-15.2400
 30
0.0000
 41
1.5660
 42
1.5660
 43
1.0000
 50
0.0000
  0
INSERT
  8
29
  2
OCTAGONP
 10
-29.2100
 20
-17.7800
 30
0.0000
 41
1.5660
 42
1.5660
 43
1.0000
 50
0.0000
  0
INSERT
  8
29
  2
OCTAGONP
 10
-29.2100
 20
-15.2400
 30
0.0000
 41
1.5660
 42
1.5660
 43
1.0000
 50
0.0000
  0
INSERT
  8
29
  2
OCTAGONP
 10
-26.6700
 20
-17.7800
 30
0.0000
 41
1.5660
 42
1.5660
 43
1.0000
 50
0.0000
  0
INSERT
  8
29
  2
OCTAGONP
 10
-26.6700
 20
-15.2400
 30
0.0000
 41
1.5660
 42
1.5660
 43
1.0000
 50
0.0000
  0
INSERT
  8
29
  2
OCTAGONP
 10
-24.1300
 20
-17.7800
 30
0.0000
 41
1.5660
 42
1.5660
 43
1.0000
 50
0.0000
  0
INSERT
  8
29
  2
OCTAGONP
 10
-24.1300
 20
-15.2400
 30
0.0000
 41
1.5660
 42
1.5660
 43
1.0000
 50
0.0000
  0
INSERT
  8
29
  2
OCTAGONP
 10
-21.5900
 20
-17.7800
 30
0.0000
 41
1.5660
 42
1.5660
 43
1.0000
 50
0.0000
  0
INSERT
  8
29
  2
OCTAGONP
 10
-21.5900
 20
-15.2400
 30
0.0000
 41
1.5660
 42
1.5660
 43
1.0000
 50
0.0000
  0
INSERT
  8
29
  2
OCTAGONP
 10
-19.0500
 20
-17.7800
 30
0.0000
 41
1.5660
 42
1.5660
 43
1.0000
 50
0.0000
  0
INSERT
  8
29
  2
OCTAGONP
 10
-19.0500
 20
-15.2400
 30
0.0000
 41
1.5660
 42
1.5660
 43
1.0000
 50
0.0000
  0
INSERT
  8
29
  2
OCTAGONP
 10
-16.5100
 20
-17.7800
 30
0.0000
 41
1.5660
 42
1.5660
 43
1.0000
 50
0.0000
  0
INSERT
  8
29
  2
OCTAGONP
 10
-16.5100
 20
-15.2400
 30
0.0000
 41
1.5660
 42
1.5660
 43
1.0000
 50
0.0000
  0
INSERT
  8
29
  2
OCTAGONP
 10
-13.9700
 20
-17.7800
 30
0.0000
 41
1.5660
 42
1.5660
 43
1.0000
 50
0.0000
  0
INSERT
  8
29
  2
OCTAGONP
 10
-13.9700
 20
-15.2400
 30
0.0000
 41
1.5660
 42
1.5660
 43
1.0000
 50
0.0000
  0
INSERT
  8
29
  2
OCTAGONP
 10
-11.4300
 20
-17.7800
 30
0.0000
 41
1.5660
 42
1.5660
 43
1.0000
 50
0.0000
  0
INSERT
  8
29
  2
OCTAGONP
 10
-11.4300
 20
-15.2400
 30
0.0000
 41
1.5660
 42
1.5660
 43
1.0000
 50
0.0000
  0
INSERT
  8
29
  2
OCTAGONP
 10
-8.8900
 20
-17.7800
 30
0.0000
 41
1.5660
 42
1.5660
 43
1.0000
 50
0.0000
  0
INSERT
  8
29
  2
OCTAGONP
 10
-8.8900
 20
-15.2400
 30
0.0000
 41
1.5660
 42
1.5660
 43
1.0000
 50
0.0000
  0
INSERT
  8
29
  2
OCTAGONP
 10
-6.3500
 20
-17.7800
 30
0.0000
 41
1.5660
 42
1.5660
 43
1.0000
 50
0.0000
  0
INSERT
  8
29
  2
OCTAGONP
 10
-6.3500
 20
-15.2400
 30
0.0000
 41
1.5660
 42
1.5660
 43
1.0000
 50
0.0000
  0
INSERT
  8
29
  2
OCTAGONP
 10
-3.8100
 20
-17.7800
 30
0.0000
 41
1.5660
 42
1.5660
 43
1.0000
 50
0.0000
  0
INSERT
  8
29
  2
OCTAGONP
 10
-3.8100
 20
-15.2400
 30
0.0000
 41
1.5660
 42
1.5660
 43
1.0000
 50
0.0000
  0
INSERT
  8
29
  2
OCTAGONP
 10
-1.2700
 20
-17.7800
 30
0.0000
 41
1.5660
 42
1.5660
 43
1.0000
 50
0.0000
  0
INSERT
  8
29
  2
OCTAGONP
 10
-1.2700
 20
-15.2400
 30
0.0000
 41
1.5660
 42
1.5660
 43
1.0000
 50
0.0000
  0
INSERT
  8
29
  2
OCTAGONP
 10
1.2700
 20
-17.7800
 30
0.0000
 41
1.5660
 42
1.5660
 43
1.0000
 50
0.0000
  0
INSERT
  8
29
  2
OCTAGONP
 10
1.2700
 20
-15.2400
 30
0.0000
 41
1.5660
 42
1.5660
 43
1.0000
 50
0.0000
  0
INSERT
  8
29
  2
OCTAGONP
 10
3.8100
 20
-17.7800
 30
0.0000
 41
1.5660
 42
1.5660
 43
1.0000
 50
0.0000
  0
INSERT
  8
29
  2
OCTAGONP
 10
3.8100
 20
-15.2400
 30
0.0000
 41
1.5660
 42
1.5660
 43
1.0000
 50
0.0000
  0
INSERT
  8
29
  2
OCTAGONP
 10
6.3500
 20
-17.7800
 30
0.0000
 41
1.5660
 42
1.5660
 43
1.0000
 50
0.0000
  0
INSERT
  8
29
  2
OCTAGONP
 10
6.3500
 20
-15.2400
 30
0.0000
 41
1.5660
 42
1.5660
 43
1.0000
 50
0.0000
  0
INSERT
  8
29
  2
OCTAGONP
 10
8.8900
 20
-17.7800
 30
0.0000
 41
1.5660
 42
1.5660
 43
1.0000
 50
0.0000
  0
INSERT
  8
29
  2
OCTAGONP
 10
8.8900
 20
-15.2400
 30
0.0000
 41
1.5660
 42
1.5660
 43
1.0000
 50
0.0000
  0
INSERT
  8
29
  2
OCTAGONP
 10
11.4300
 20
-17.7800
 30
0.0000
 41
1.5660
 42
1.5660
 43
1.0000
 50
0.0000
  0
INSERT
  8
29
  2
OCTAGONP
 10
11.4300
 20
-15.2400
 30
0.0000
 41
1.5660
 42
1.5660
 43
1.0000
 50
0.0000
  0
INSERT
  8
29
  2
OCTAGONP
 10
13.9700
 20
-17.7800
 30
0.0000
 41
1.5660
 42
1.5660
 43
1.0000
 50
0.0000
  0
INSERT
  8
29
  2
OCTAGONP
 10
13.9700
 20
-15.2400
 30
0.0000
 41
1.5660
 42
1.5660
 43
1.0000
 50
0.0000
  0
INSERT
  8
29
  2
OCTAGONP
 10
16.5100
 20
-17.7800
 30
0.0000
 41
1.5660
 42
1.5660
 43
1.0000
 50
0.0000
  0
INSERT
  8
29
  2
OCTAGONP
 10
16.5100
 20
-15.2400
 30
0.0000
 41
1.5660
 42
1.5660
 43
1.0000
 50
0.0000
  0
INSERT
  8
29
  2
OCTAGONP
 10
19.0500
 20
-17.7800
 30
0.0000
 41
1.5660
 42
1.5660
 43
1.0000
 50
0.0000
  0
INSERT
  8
29
  2
OCTAGONP
 10
19.0500
 20
-15.2400
 30
0.0000
 41
1.5660
 42
1.5660
 43
1.0000
 50
0.0000
  0
INSERT
  8
29
  2
OCTAGONP
 10
21.5900
 20
-17.7800
 30
0.0000
 41
1.5660
 42
1.5660
 43
1.0000
 50
0.0000
  0
INSERT
  8
29
  2
OCTAGONP
 10
21.5900
 20
-15.2400
 30
0.0000
 41
1.5660
 42
1.5660
 43
1.0000
 50
0.0000
  0
INSERT
  8
29
  2
OCTAGONP
 10
24.1300
 20
-17.7800
 30
0.0000
 41
1.5660
 42
1.5660
 43
1.0000
 50
0.0000
  0
INSERT
  8
29
  2
OCTAGONP
 10
24.1300
 20
-15.2400
 30
0.0000
 41
1.5660
 42
1.5660
 43
1.0000
 50
0.0000
  0
INSERT
  8
29
  2
OCTAGONP
 10
26.6700
 20
-17.7800
 30
0.0000
 41
1.5660
 42
1.5660
 43
1.0000
 50
0.0000
  0
INSERT
  8
29
  2
OCTAGONP
 10
26.6700
 20
-15.2400
 30
0.0000
 41
1.5660
 42
1.5660
 43
1.0000
 50
0.0000
  0
INSERT
  8
29
  2
OCTAGONP
 10
29.2100
 20
-17.7800
 30
0.0000
 41
1.5660
 42
1.5660
 43
1.0000
 50
0.0000
  0
INSERT
  8
29
  2
OCTAGONP
 10
29.2100
 20
-15.2400
 30
0.0000
 41
1.5660
 42
1.5660
 43
1.0000
 50
0.0000
  0
INSERT
  8
29
  2
OCTAGONP
 10
31.7500
 20
-17.7800
 30
0.0000
 41
1.5660
 42
1.5660
 43
1.0000
 50
0.0000
  0
INSERT
  8
29
  2
OCTAGONP
 10
31.7500
 20
-15.2400
 30
0.0000
 41
1.5660
 42
1.5660
 43
1.0000
 50
0.0000
  0
INSERT
  8
29
  2
OCTAGONP
 10
34.2900
 20
-17.7800
 30
0.0000
 41
1.5660
 42
1.5660
 43
1.0000
 50
0.0000
  0
INSERT
  8
29
  2
OCTAGONP
 10
34.2900
 20
-15.2400
 30
0.0000
 41
1.5660
 42
1.5660
 43
1.0000
 50
0.0000
  0
LINE
  8
21
 10
-40.6400
 20
14.6050
 30
0.0000
 11
-40.0050
 21
13.9700
 31
0.0000
  0
LINE
  8
21
 10
-40.0050
 20
13.9700
 30
0.0000
 11
-38.7350
 21
13.9700
 31
0.0000
  0
LINE
  8
21
 10
-38.7350
 20
13.9700
 30
0.0000
 11
-38.1000
 21
14.6050
 31
0.0000
  0
LINE
  8
21
 10
-38.1000
 20
14.6050
 30
0.0000
 11
-37.4650
 21
13.9700
 31
0.0000
  0
LINE
  8
21
 10
-37.4650
 20
13.9700
 30
0.0000
 11
-36.1950
 21
13.9700
 31
0.0000
  0
LINE
  8
21
 10
-36.1950
 20
13.9700
 30
0.0000
 11
-35.5600
 21
14.6050
 31
0.0000
  0
LINE
  8
21
 10
-35.5600
 20
14.6050
 30
0.0000
 11
-34.9250
 21
13.9700
 31
0.0000
  0
LINE
  8
21
 10
-34.9250
 20
13.9700
 30
0.0000
 11
-33.6550
 21
13.9700
 31
0.0000
  0
LINE
  8
21
 10
-33.6550
 20
13.9700
 30
0.0000
 11
-33.0200
 21
14.6050
 31
0.0000
  0
LINE
  8
21
 10
-33.0200
 20
14.6050
 30
0.0000
 11
-32.3850
 21
13.9700
 31
0.0000
  0
LINE
  8
21
 10
-32.3850
 20
13.9700
 30
0.0000
 11
-31.1150
 21
13.9700
 31
0.0000
  0
LINE
  8
21
 10
-31.1150
 20
13.9700
 30
0.0000
 11
-30.4800
 21
14.6050
 31
0.0000
  0
LINE
  8
21
 10
-30.4800
 20
14.6050
 30
0.0000
 11
-29.8450
 21
13.9700
 31
0.0000
  0
LINE
  8
21
 10
-29.8450
 20
13.9700
 30
0.0000
 11
-28.5750
 21
13.9700
 31
0.0000
  0
LINE
  8
21
 10
-28.5750
 20
13.9700
 30
0.0000
 11
-27.9400
 21
14.6050
 31
0.0000
  0
LINE
  8
21
 10
-27.9400
 20
14.6050
 30
0.0000
 11
-27.3050
 21
13.9700
 31
0.0000
  0
LINE
  8
21
 10
-27.3050
 20
13.9700
 30
0.0000
 11
-26.0350
 21
13.9700
 31
0.0000
  0
LINE
  8
21
 10
-26.0350
 20
13.9700
 30
0.0000
 11
-25.4000
 21
14.6050
 31
0.0000
  0
LINE
  8
21
 10
-40.6400
 20
14.6050
 30
0.0000
 11
-40.6400
 21
18.4150
 31
0.0000
  0
LINE
  8
21
 10
-40.6400
 20
18.4150
 30
0.0000
 11
-40.0050
 21
19.0500
 31
0.0000
  0
LINE
  8
21
 10
-40.0050
 20
19.0500
 30
0.0000
 11
-38.7350
 21
19.0500
 31
0.0000
  0
LINE
  8
21
 10
-38.7350
 20
19.0500
 30
0.0000
 11
-38.1000
 21
18.4150
 31
0.0000
  0
LINE
  8
21
 10
-38.1000
 20
18.4150
 30
0.0000
 11
-37.4650
 21
19.0500
 31
0.0000
  0
LINE
  8
21
 10
-37.4650
 20
19.0500
 30
0.0000
 11
-36.1950
 21
19.0500
 31
0.0000
  0
LINE
  8
21
 10
-36.1950
 20
19.0500
 30
0.0000
 11
-35.5600
 21
18.4150
 31
0.0000
  0
LINE
  8
21
 10
-35.5600
 20
18.4150
 30
0.0000
 11
-34.9250
 21
19.0500
 31
0.0000
  0
LINE
  8
21
 10
-34.9250
 20
19.0500
 30
0.0000
 11
-33.6550
 21
19.0500
 31
0.0000
  0
LINE
  8
21
 10
-33.6550
 20
19.0500
 30
0.0000
 11
-33.0200
 21
18.4150
 31
0.0000
  0
LINE
  8
21
 10
-33.0200
 20
18.4150
 30
0.0000
 11
-32.3850
 21
19.0500
 31
0.0000
  0
LINE
  8
21
 10
-32.3850
 20
19.0500
 30
0.0000
 11
-31.1150
 21
19.0500
 31
0.0000
  0
LINE
  8
21
 10
-31.1150
 20
19.0500
 30
0.0000
 11
-30.4800
 21
18.4150
 31
0.0000
  0
LINE
  8
21
 10
-30.4800
 20
18.4150
 30
0.0000
 11
-29.8450
 21
19.0500
 31
0.0000
  0
LINE
  8
21
 10
-29.8450
 20
19.0500
 30
0.0000
 11
-28.5750
 21
19.0500
 31
0.0000
  0
LINE
  8
21
 10
-28.5750
 20
19.0500
 30
0.0000
 11
-27.9400
 21
18.4150
 31
0.0000
  0
LINE
  8
21
 10
-27.9400
 20
18.4150
 30
0.0000
 11
-27.3050
 21
19.0500
 31
0.0000
  0
LINE
  8
21
 10
-27.3050
 20
19.0500
 30
0.0000
 11
-26.0350
 21
19.0500
 31
0.0000
  0
LINE
  8
21
 10
-26.0350
 20
19.0500
 30
0.0000
 11
-25.4000
 21
18.4150
 31
0.0000
  0
LINE
  8
21
 10
-25.4000
 20
18.4150
 30
0.0000
 11
-24.7650
 21
19.0500
 31
0.0000
  0
LINE
  8
21
 10
-24.7650
 20
19.0500
 30
0.0000
 11
-23.4950
 21
19.0500
 31
0.0000
  0
LINE
  8
21
 10
-23.4950
 20
19.0500
 30
0.0000
 11
-22.8600
 21
18.4150
 31
0.0000
  0
LINE
  8
21
 10
-22.8600
 20
18.4150
 30
0.0000
 11
-22.2250
 21
19.0500
 31
0.0000
  0
LINE
  8
21
 10
-22.2250
 20
19.0500
 30
0.0000
 11
-20.9550
 21
19.0500
 31
0.0000
  0
LINE
  8
21
 10
-20.9550
 20
19.0500
 30
0.0000
 11
-20.3200
 21
18.4150
 31
0.0000
  0
LINE
  8
21
 10
-20.3200
 20
18.4150
 30
0.0000
 11
-19.6850
 21
19.0500
 31
0.0000
  0
LINE
  8
21
 10
-19.6850
 20
19.0500
 30
0.0000
 11
-18.4150
 21
19.0500
 31
0.0000
  0
LINE
  8
21
 10
-18.4150
 20
19.0500
 30
0.0000
 11
-17.7800
 21
18.4150
 31
0.0000
  0
LINE
  8
21
 10
-17.7800
 20
18.4150
 30
0.0000
 11
-17.1450
 21
19.0500
 31
0.0000
  0
LINE
  8
21
 10
-17.1450
 20
19.0500
 30
0.0000
 11
-15.8750
 21
19.0500
 31
0.0000
  0
LINE
  8
21
 10
-15.8750
 20
19.0500
 30
0.0000
 11
-15.2400
 21
18.4150
 31
0.0000
  0
LINE
  8
21
 10
-15.2400
 20
18.4150
 30
0.0000
 11
-14.6050
 21
19.0500
 31
0.0000
  0
LINE
  8
21
 10
-14.6050
 20
19.0500
 30
0.0000
 11
-13.3350
 21
19.0500
 31
0.0000
  0
LINE
  8
21
 10
-13.3350
 20
19.0500
 30
0.0000
 11
-12.7000
 21
18.4150
 31
0.0000
  0
LINE
  8
21
 10
-12.7000
 20
18.4150
 30
0.0000
 11
-12.0650
 21
19.0500
 31
0.0000
  0
LINE
  8
21
 10
-12.0650
 20
19.0500
 30
0.0000
 11
-10.7950
 21
19.0500
 31
0.0000
  0
LINE
  8
21
 10
-10.1600
 20
18.4150
 30
0.0000
 11
-10.7950
 21
19.0500
 31
0.0000
  0
LINE
  8
21
 10
-10.1600
 20
18.4150
 30
0.0000
 11
-9.5250
 21
19.0500
 31
0.0000
  0
LINE
  8
21
 10
-8.2550
 20
19.0500
 30
0.0000
 11
-9.5250
 21
19.0500
 31
0.0000
  0
LINE
  8
21
 10
-8.2550
 20
19.0500
 30
0.0000
 11
-7.6200
 21
18.4150
 31
0.0000
  0
LINE
  8
21
 10
-7.6200
 20
18.4150
 30
0.0000
 11
-6.9850
 21
19.0500
 31
0.0000
  0
LINE
  8
21
 10
-5.7150
 20
19.0500
 30
0.0000
 11
-6.9850
 21
19.0500
 31
0.0000
  0
LINE
  8
21
 10
-5.7150
 20
19.0500
 30
0.0000
 11
-5.0800
 21
18.4150
 31
0.0000
  0
LINE
  8
21
 10
-5.0800
 20
18.4150
 30
0.0000
 11
-4.4450
 21
19.0500
 31
0.0000
  0
LINE
  8
21
 10
-3.1750
 20
19.0500
 30
0.0000
 11
-4.4450
 21
19.0500
 31
0.0000
  0
LINE
  8
21
 10
-3.1750
 20
19.0500
 30
0.0000
 11
-2.5400
 21
18.4150
 31
0.0000
  0
LINE
  8
21
 10
-2.5400
 20
18.4150
 30
0.0000
 11
-1.9050
 21
19.0500
 31
0.0000
  0
LINE
  8
21
 10
-0.6350
 20
19.0500
 30
0.0000
 11
-1.9050
 21
19.0500
 31
0.0000
  0
LINE
  8
21
 10
-0.6350
 20
19.0500
 30
0.0000
 11
0.0000
 21
18.4150
 31
0.0000
  0
LINE
  8
21
 10
0.0000
 20
18.4150
 30
0.0000
 11
0.6350
 21
19.0500
 31
0.0000
  0
LINE
  8
21
 10
1.9050
 20
19.0500
 30
0.0000
 11
0.6350
 21
19.0500
 31
0.0000
  0
LINE
  8
21
 10
1.9050
 20
19.0500
 30
0.0000
 11
2.5400
 21
18.4150
 31
0.0000
  0
LINE
  8
21
 10
2.5400
 20
18.4150
 30
0.0000
 11
3.1750
 21
19.0500
 31
0.0000
  0
LINE
  8
21
 10
4.4450
 20
19.0500
 30
0.0000
 11
3.1750
 21
19.0500
 31
0.0000
  0
LINE
  8
21
 10
4.4450
 20
19.0500
 30
0.0000
 11
5.0800
 21
18.4150
 31
0.0000
  0
LINE
  8
21
 10
5.0800
 20
18.4150
 30
0.0000
 11
5.7150
 21
19.0500
 31
0.0000
  0
LINE
  8
21
 10
6.9850
 20
19.0500
 30
0.0000
 11
5.7150
 21
19.0500
 31
0.0000
  0
LINE
  8
21
 10
6.9850
 20
19.0500
 30
0.0000
 11
7.6200
 21
18.4150
 31
0.0000
  0
LINE
  8
21
 10
7.6200
 20
14.6050
 30
0.0000
 11
6.9850
 21
13.9700
 31
0.0000
  0
LINE
  8
21
 10
6.9850
 20
13.9700
 30
0.0000
 11
5.7150
 21
13.9700
 31
0.0000
  0
LINE
  8
21
 10
5.0800
 20
14.6050
 30
0.0000
 11
5.7150
 21
13.9700
 31
0.0000
  0
LINE
  8
21
 10
5.0800
 20
14.6050
 30
0.0000
 11
4.4450
 21
13.9700
 31
0.0000
  0
LINE
  8
21
 10
4.4450
 20
13.9700
 30
0.0000
 11
3.1750
 21
13.9700
 31
0.0000
  0
LINE
  8
21
 10
2.5400
 20
14.6050
 30
0.0000
 11
3.1750
 21
13.9700
 31
0.0000
  0
LINE
  8
21
 10
2.5400
 20
14.6050
 30
0.0000
 11
1.9050
 21
13.9700
 31
0.0000
  0
LINE
  8
21
 10
1.9050
 20
13.9700
 30
0.0000
 11
0.6350
 21
13.9700
 31
0.0000
  0
LINE
  8
21
 10
0.0000
 20
14.6050
 30
0.0000
 11
0.6350
 21
13.9700
 31
0.0000
  0
LINE
  8
21
 10
0.0000
 20
14.6050
 30
0.0000
 11
-0.6350
 21
13.9700
 31
0.0000
  0
LINE
  8
21
 10
-1.9050
 20
13.9700
 30
0.0000
 11
-0.6350
 21
13.9700
 31
0.0000
  0
LINE
  8
21
 10
-1.9050
 20
13.9700
 30
0.0000
 11
-2.5400
 21
14.6050
 31
0.0000
  0
LINE
  8
21
 10
-2.5400
 20
14.6050
 30
0.0000
 11
-3.1750
 21
13.9700
 31
0.0000
  0
LINE
  8
21
 10
-4.4450
 20
13.9700
 30
0.0000
 11
-3.1750
 21
13.9700
 31
0.0000
  0
LINE
  8
21
 10
-4.4450
 20
13.9700
 30
0.0000
 11
-5.0800
 21
14.6050
 31
0.0000
  0
LINE
  8
21
 10
-5.0800
 20
14.6050
 30
0.0000
 11
-5.7150
 21
13.9700
 31
0.0000
  0
LINE
  8
21
 10
-5.7150
 20
13.9700
 30
0.0000
 11
-6.9850
 21
13.9700
 31
0.0000
  0
LINE
  8
21
 10
-7.6200
 20
14.6050
 30
0.0000
 11
-6.9850
 21
13.9700
 31
0.0000
  0
LINE
  8
21
 10
-7.6200
 20
14.6050
 30
0.0000
 11
-8.2550
 21
13.9700
 31
0.0000
  0
LINE
  8
21
 10
-8.2550
 20
13.9700
 30
0.0000
 11
-9.5250
 21
13.9700
 31
0.0000
  0
LINE
  8
21
 10
-10.1600
 20
14.6050
 30
0.0000
 11
-9.5250
 21
13.9700
 31
0.0000
  0
LINE
  8
21
 10
-10.1600
 20
14.6050
 30
0.0000
 11
-10.7950
 21
13.9700
 31
0.0000
  0
LINE
  8
21
 10
-10.7950
 20
13.9700
 30
0.0000
 11
-12.0650
 21
13.9700
 31
0.0000
  0
LINE
  8
21
 10
-12.7000
 20
14.6050
 30
0.0000
 11
-12.0650
 21
13.9700
 31
0.0000
  0
LINE
  8
21
 10
-12.7000
 20
14.6050
 30
0.0000
 11
-13.3350
 21
13.9700
 31
0.0000
  0
LINE
  8
21
 10
-13.3350
 20
13.9700
 30
0.0000
 11
-14.6050
 21
13.9700
 31
0.0000
  0
LINE
  8
21
 10
-15.2400
 20
14.6050
 30
0.0000
 11
-14.6050
 21
13.9700
 31
0.0000
  0
LINE
  8
21
 10
-15.2400
 20
14.6050
 30
0.0000
 11
-15.8750
 21
13.9700
 31
0.0000
  0
LINE
  8
21
 10
-15.8750
 20
13.9700
 30
0.0000
 11
-17.1450
 21
13.9700
 31
0.0000
  0
LINE
  8
21
 10
-17.7800
 20
14.6050
 30
0.0000
 11
-17.1450
 21
13.9700
 31
0.0000
  0
LINE
  8
21
 10
-17.7800
 20
14.6050
 30
0.0000
 11
-18.4150
 21
13.9700
 31
0.0000
  0
LINE
  8
21
 10
-18.4150
 20
13.9700
 30
0.0000
 11
-19.6850
 21
13.9700
 31
0.0000
  0
LINE
  8
21
 10
-20.3200
 20
14.6050
 30
0.0000
 11
-19.6850
 21
13.9700
 31
0.0000
  0
LINE
  8
21
 10
-20.3200
 20
14.6050
 30
0.0000
 11
-20.9550
 21
13.9700
 31
0.0000
  0
LINE
  8
21
 10
-20.9550
 20
13.9700
 30
0.0000
 11
-22.2250
 21
13.9700
 31
0.0000
  0
LINE
  8
21
 10
-22.8600
 20
14.6050
 30
0.0000
 11
-22.2250
 21
13.9700
 31
0.0000
  0
LINE
  8
21
 10
-22.8600
 20
14.6050
 30
0.0000
 11
-23.4950
 21
13.9700
 31
0.0000
  0
LINE
  8
21
 10
-23.4950
 20
13.9700
 30
0.0000
 11
-24.7650
 21
13.9700
 31
0.0000
  0
LINE
  8
21
 10
-25.4000
 20
14.6050
 30
0.0000
 11
-24.7650
 21
13.9700
 31
0.0000
  0
LINE
  8
21
 10
-38.1000
 20
18.4150
 30
0.0000
 11
-38.1000
 21
14.6050
 31
0.0000
  0
LINE
  8
21
 10
-35.5600
 20
18.4150
 30
0.0000
 11
-35.5600
 21
14.6050
 31
0.0000
  0
LINE
  8
21
 10
-33.0200
 20
18.4150
 30
0.0000
 11
-33.0200
 21
14.6050
 31
0.0000
  0
LINE
  8
21
 10
-30.4800
 20
18.4150
 30
0.0000
 11
-30.4800
 21
14.6050
 31
0.0000
  0
LINE
  8
21
 10
-27.9400
 20
18.4150
 30
0.0000
 11
-27.9400
 21
14.6050
 31
0.0000
  0
LINE
  8
21
 10
-25.4000
 20
18.4150
 30
0.0000
 11
-25.4000
 21
14.6050
 31
0.0000
  0
LINE
  8
21
 10
-22.8600
 20
18.4150
 30
0.0000
 11
-22.8600
 21
14.6050
 31
0.0000
  0
LINE
  8
21
 10
-20.3200
 20
18.4150
 30
0.0000
 11
-20.3200
 21
14.6050
 31
0.0000
  0
LINE
  8
21
 10
-17.7800
 20
18.4150
 30
0.0000
 11
-17.7800
 21
14.6050
 31
0.0000
  0
LINE
  8
21
 10
-15.2400
 20
18.4150
 30
0.0000
 11
-15.2400
 21
14.6050
 31
0.0000
  0
LINE
  8
21
 10
-12.7000
 20
18.4150
 30
0.0000
 11
-12.7000
 21
14.6050
 31
0.0000
  0
LINE
  8
21
 10
-10.1600
 20
18.4150
 30
0.0000
 11
-10.1600
 21
14.6050
 31
0.0000
  0
LINE
  8
21
 10
-7.6200
 20
18.4150
 30
0.0000
 11
-7.6200
 21
14.6050
 31
0.0000
  0
LINE
  8
21
 10
-5.0800
 20
18.4150
 30
0.0000
 11
-5.0800
 21
14.6050
 31
0.0000
  0
LINE
  8
21
 10
-2.5400
 20
18.4150
 30
0.0000
 11
-2.5400
 21
14.6050
 31
0.0000
  0
LINE
  8
21
 10
0.0000
 20
18.4150
 30
0.0000
 11
0.0000
 21
14.6050
 31
0.0000
  0
LINE
  8
21
 10
2.5400
 20
18.4150
 30
0.0000
 11
2.5400
 21
14.6050
 31
0.0000
  0
LINE
  8
21
 10
5.0800
 20
18.4150
 30
0.0000
 11
5.0800
 21
14.6050
 31
0.0000
  0
LINE
  8
21
 10
7.6200
 20
18.4150
 30
0.0000
 11
7.6200
 21
14.6050
 31
0.0000
  0
LINE
  8
21
 10
7.6200
 20
18.4150
 30
0.0000
 11
8.2550
 21
19.0500
 31
0.0000
  0
LINE
  8
21
 10
9.5250
 20
19.0500
 30
0.0000
 11
8.2550
 21
19.0500
 31
0.0000
  0
LINE
  8
21
 10
9.5250
 20
19.0500
 30
0.0000
 11
10.1600
 21
18.4150
 31
0.0000
  0
LINE
  8
21
 10
10.1600
 20
14.6050
 30
0.0000
 11
9.5250
 21
13.9700
 31
0.0000
  0
LINE
  8
21
 10
9.5250
 20
13.9700
 30
0.0000
 11
8.2550
 21
13.9700
 31
0.0000
  0
LINE
  8
21
 10
7.6200
 20
14.6050
 30
0.0000
 11
8.2550
 21
13.9700
 31
0.0000
  0
LINE
  8
21
 10
10.1600
 20
18.4150
 30
0.0000
 11
10.1600
 21
14.6050
 31
0.0000
  0
LINE
  8
21
 10
10.1600
 20
18.4150
 30
0.0000
 11
10.7950
 21
19.0500
 31
0.0000
  0
LINE
  8
21
 10
12.0650
 20
19.0500
 30
0.0000
 11
10.7950
 21
19.0500
 31
0.0000
  0
LINE
  8
21
 10
12.0650
 20
19.0500
 30
0.0000
 11
12.7000
 21
18.4150
 31
0.0000
  0
LINE
  8
21
 10
12.7000
 20
14.6050
 30
0.0000
 11
12.0650
 21
13.9700
 31
0.0000
  0
LINE
  8
21
 10
12.0650
 20
13.9700
 30
0.0000
 11
10.7950
 21
13.9700
 31
0.0000
  0
LINE
  8
21
 10
10.1600
 20
14.6050
 30
0.0000
 11
10.7950
 21
13.9700
 31
0.0000
  0
LINE
  8
21
 10
12.7000
 20
18.4150
 30
0.0000
 11
12.7000
 21
14.6050
 31
0.0000
  0
LINE
  8
21
 10
12.7000
 20
18.4150
 30
0.0000
 11
13.3350
 21
19.0500
 31
0.0000
  0
LINE
  8
21
 10
14.6050
 20
19.0500
 30
0.0000
 11
13.3350
 21
19.0500
 31
0.0000
  0
LINE
  8
21
 10
14.6050
 20
19.0500
 30
0.0000
 11
15.2400
 21
18.4150
 31
0.0000
  0
LINE
  8
21
 10
15.2400
 20
14.6050
 30
0.0000
 11
14.6050
 21
13.9700
 31
0.0000
  0
LINE
  8
21
 10
14.6050
 20
13.9700
 30
0.0000
 11
13.3350
 21
13.9700
 31
0.0000
  0
LINE
  8
21
 10
12.7000
 20
14.6050
 30
0.0000
 11
13.3350
 21
13.9700
 31
0.0000
  0
LINE
  8
21
 10
15.2400
 20
18.4150
 30
0.0000
 11
15.2400
 21
14.6050
 31
0.0000
  0
LINE
  8
21
 10
15.2400
 20
18.4150
 30
0.0000
 11
15.8750
 21
19.0500
 31
0.0000
  0
LINE
  8
21
 10
17.1450
 20
19.0500
 30
0.0000
 11
15.8750
 21
19.0500
 31
0.0000
  0
LINE
  8
21
 10
17.1450
 20
19.0500
 30
0.0000
 11
17.7800
 21
18.4150
 31
0.0000
  0
LINE
  8
21
 10
17.7800
 20
14.6050
 30
0.0000
 11
17.1450
 21
13.9700
 31
0.0000
  0
LINE
  8
21
 10
17.1450
 20
13.9700
 30
0.0000
 11
15.8750
 21
13.9700
 31
0.0000
  0
LINE
  8
21
 10
15.2400
 20
14.6050
 30
0.0000
 11
15.8750
 21
13.9700
 31
0.0000
  0
LINE
  8
21
 10
17.7800
 20
18.4150
 30
0.0000
 11
17.7800
 21
14.6050
 31
0.0000
  0
LINE
  8
21
 10
17.7800
 20
18.4150
 30
0.0000
 11
18.4150
 21
19.0500
 31
0.0000
  0
LINE
  8
21
 10
19.6850
 20
19.0500
 30
0.0000
 11
18.4150
 21
19.0500
 31
0.0000
  0
LINE
  8
21
 10
19.6850
 20
19.0500
 30
0.0000
 11
20.3200
 21
18.4150
 31
0.0000
  0
LINE
  8
21
 10
20.3200
 20
14.6050
 30
0.0000
 11
19.6850
 21
13.9700
 31
0.0000
  0
LINE
  8
21
 10
19.6850
 20
13.9700
 30
0.0000
 11
18.4150
 21
13.9700
 31
0.0000
  0
LINE
  8
21
 10
17.7800
 20
14.6050
 30
0.0000
 11
18.4150
 21
13.9700
 31
0.0000
  0
LINE
  8
21
 10
20.3200
 20
18.4150
 30
0.0000
 11
20.3200
 21
14.6050
 31
0.0000
  0
LINE
  8
21
 10
20.3200
 20
18.4150
 30
0.0000
 11
20.9550
 21
19.0500
 31
0.0000
  0
LINE
  8
21
 10
22.2250
 20
19.0500
 30
0.0000
 11
20.9550
 21
19.0500
 31
0.0000
  0
LINE
  8
21
 10
22.2250
 20
19.0500
 30
0.0000
 11
22.8600
 21
18.4150
 31
0.0000
  0
LINE
  8
21
 10
22.8600
 20
14.6050
 30
0.0000
 11
22.2250
 21
13.9700
 31
0.0000
  0
LINE
  8
21
 10
22.2250
 20
13.9700
 30
0.0000
 11
20.9550
 21
13.9700
 31
0.0000
  0
LINE
  8
21
 10
20.3200
 20
14.6050
 30
0.0000
 11
20.9550
 21
13.9700
 31
0.0000
  0
LINE
  8
21
 10
22.8600
 20
18.4150
 30
0.0000
 11
22.8600
 21
14.6050
 31
0.0000
  0
LINE
  8
21
 10
22.8600
 20
18.4150
 30
0.0000
 11
23.4950
 21
19.0500
 31
0.0000
  0
LINE
  8
21
 10
24.7650
 20
19.0500
 30
0.0000
 11
23.4950
 21
19.0500
 31
0.0000
  0
LINE
  8
21
 10
24.7650
 20
19.0500
 30
0.0000
 11
25.4000
 21
18.4150
 31
0.0000
  0
LINE
  8
21
 10
25.4000
 20
14.6050
 30
0.0000
 11
24.7650
 21
13.9700
 31
0.0000
  0
LINE
  8
21
 10
24.7650
 20
13.9700
 30
0.0000
 11
23.4950
 21
13.9700
 31
0.0000
  0
LINE
  8
21
 10
22.8600
 20
14.6050
 30
0.0000
 11
23.4950
 21
13.9700
 31
0.0000
  0
LINE
  8
21
 10
25.4000
 20
18.4150
 30
0.0000
 11
25.4000
 21
14.6050
 31
0.0000
  0
LINE
  8
21
 10
25.4000
 20
18.4150
 30
0.0000
 11
26.0350
 21
19.0500
 31
0.0000
  0
LINE
  8
21
 10
27.3050
 20
19.0500
 30
0.0000
 11
26.0350
 21
19.0500
 31
0.0000
  0
LINE
  8
21
 10
27.3050
 20
19.0500
 30
0.0000
 11
27.9400
 21
18.4150
 31
0.0000
  0
LINE
  8
21
 10
27.9400
 20
14.6050
 30
0.0000
 11
27.3050
 21
13.9700
 31
0.0000
  0
LINE
  8
21
 10
27.3050
 20
13.9700
 30
0.0000
 11
26.0350
 21
13.9700
 31
0.0000
  0
LINE
  8
21
 10
25.4000
 20
14.6050
 30
0.0000
 11
26.0350
 21
13.9700
 31
0.0000
  0
LINE
  8
21
 10
27.9400
 20
18.4150
 30
0.0000
 11
27.9400
 21
14.6050
 31
0.0000
  0
LINE
  8
21
 10
27.9400
 20
18.4150
 30
0.0000
 11
28.5750
 21
19.0500
 31
0.0000
  0
LINE
  8
21
 10
29.8450
 20
19.0500
 30
0.0000
 11
28.5750
 21
19.0500
 31
0.0000
  0
LINE
  8
21
 10
29.8450
 20
19.0500
 30
0.0000
 11
30.4800
 21
18.4150
 31
0.0000
  0
LINE
  8
21
 10
30.4800
 20
14.6050
 30
0.0000
 11
29.8450
 21
13.9700
 31
0.0000
  0
LINE
  8
21
 10
29.8450
 20
13.9700
 30
0.0000
 11
28.5750
 21
13.9700
 31
0.0000
  0
LINE
  8
21
 10
27.9400
 20
14.6050
 30
0.0000
 11
28.5750
 21
13.9700
 31
0.0000
  0
LINE
  8
21
 10
30.4800
 20
18.4150
 30
0.0000
 11
30.4800
 21
14.6050
 31
0.0000
  0
LINE
  8
21
 10
30.4800
 20
18.4150
 30
0.0000
 11
31.1150
 21
19.0500
 31
0.0000
  0
LINE
  8
21
 10
32.3850
 20
19.0500
 30
0.0000
 11
31.1150
 21
19.0500
 31
0.0000
  0
LINE
  8
21
 10
32.3850
 20
19.0500
 30
0.0000
 11
33.0200
 21
18.4150
 31
0.0000
  0
LINE
  8
21
 10
33.0200
 20
14.6050
 30
0.0000
 11
32.3850
 21
13.9700
 31
0.0000
  0
LINE
  8
21
 10
32.3850
 20
13.9700
 30
0.0000
 11
31.1150
 21
13.9700
 31
0.0000
  0
LINE
  8
21
 10
30.4800
 20
14.6050
 30
0.0000
 11
31.1150
 21
13.9700
 31
0.0000
  0
LINE
  8
21
 10
33.0200
 20
18.4150
 30
0.0000
 11
33.0200
 21
14.6050
 31
0.0000
  0
LINE
  8
21
 10
33.0200
 20
18.4150
 30
0.0000
 11
33.6550
 21
19.0500
 31
0.0000
  0
LINE
  8
21
 10
34.9250
 20
19.0500
 30
0.0000
 11
33.6550
 21
19.0500
 31
0.0000
  0
LINE
  8
21
 10
34.9250
 20
19.0500
 30
0.0000
 11
35.5600
 21
18.4150
 31
0.0000
  0
LINE
  8
21
 10
35.5600
 20
14.6050
 30
0.0000
 11
34.9250
 21
13.9700
 31
0.0000
  0
LINE
  8
21
 10
34.9250
 20
13.9700
 30
0.0000
 11
33.6550
 21
13.9700
 31
0.0000
  0
LINE
  8
21
 10
33.0200
 20
14.6050
 30
0.0000
 11
33.6550
 21
13.9700
 31
0.0000
  0
LINE
  8
21
 10
35.5600
 20
18.4150
 30
0.0000
 11
35.5600
 21
14.6050
 31
0.0000
  0
INSERT
  8
51
  2
RECT
 10
-39.3700
 20
15.2400
 30
0.0000
 41
0.5080
 42
0.5080
 43
1.0000
 50
0.0000
  0
INSERT
  8
51
  2
RECT
 10
-39.3700
 20
17.7800
 30
0.0000
 41
0.5080
 42
0.5080
 43
1.0000
 50
0.0000
  0
INSERT
  8
51
  2
RECT
 10
-36.8300
 20
17.7800
 30
0.0000
 41
0.5080
 42
0.5080
 43
1.0000
 50
0.0000
  0
INSERT
  8
51
  2
RECT
 10
-36.8300
 20
15.2400
 30
0.0000
 41
0.5080
 42
0.5080
 43
1.0000
 50
0.0000
  0
INSERT
  8
51
  2
RECT
 10
-34.2900
 20
17.7800
 30
0.0000
 41
0.5080
 42
0.5080
 43
1.0000
 50
0.0000
  0
INSERT
  8
51
  2
RECT
 10
-34.2900
 20
15.2400
 30
0.0000
 41
0.5080
 42
0.5080
 43
1.0000
 50
0.0000
  0
INSERT
  8
51
  2
RECT
 10
-31.7500
 20
17.7800
 30
0.0000
 41
0.5080
 42
0.5080
 43
1.0000
 50
0.0000
  0
INSERT
  8
51
  2
RECT
 10
-29.2100
 20
17.7800
 30
0.0000
 41
0.5080
 42
0.5080
 43
1.0000
 50
0.0000
  0
INSERT
  8
51
  2
RECT
 10
-26.6700
 20
17.7800
 30
0.0000
 41
0.5080
 42
0.5080
 43
1.0000
 50
0.0000
  0
INSERT
  8
51
  2
RECT
 10
-31.7500
 20
15.2400
 30
0.0000
 41
0.5080
 42
0.5080
 43
1.0000
 50
0.0000
  0
INSERT
  8
51
  2
RECT
 10
-29.2100
 20
15.2400
 30
0.0000
 41
0.5080
 42
0.5080
 43
1.0000
 50
0.0000
  0
INSERT
  8
51
  2
RECT
 10
-26.6700
 20
15.2400
 30
0.0000
 41
0.5080
 42
0.5080
 43
1.0000
 50
0.0000
  0
INSERT
  8
51
  2
RECT
 10
-24.1300
 20
17.7800
 30
0.0000
 41
0.5080
 42
0.5080
 43
1.0000
 50
0.0000
  0
INSERT
  8
51
  2
RECT
 10
-24.1300
 20
15.2400
 30
0.0000
 41
0.5080
 42
0.5080
 43
1.0000
 50
0.0000
  0
INSERT
  8
51
  2
RECT
 10
-21.5900
 20
17.7800
 30
0.0000
 41
0.5080
 42
0.5080
 43
1.0000
 50
0.0000
  0
INSERT
  8
51
  2
RECT
 10
-21.5900
 20
15.2400
 30
0.0000
 41
0.5080
 42
0.5080
 43
1.0000
 50
0.0000
  0
INSERT
  8
51
  2
RECT
 10
-19.0500
 20
17.7800
 30
0.0000
 41
0.5080
 42
0.5080
 43
1.0000
 50
0.0000
  0
INSERT
  8
51
  2
RECT
 10
-19.0500
 20
15.2400
 30
0.0000
 41
0.5080
 42
0.5080
 43
1.0000
 50
0.0000
  0
INSERT
  8
51
  2
RECT
 10
-16.5100
 20
17.7800
 30
0.0000
 41
0.5080
 42
0.5080
 43
1.0000
 50
0.0000
  0
INSERT
  8
51
  2
RECT
 10
-16.5100
 20
15.2400
 30
0.0000
 41
0.5080
 42
0.5080
 43
1.0000
 50
0.0000
  0
INSERT
  8
51
  2
RECT
 10
-13.9700
 20
17.7800
 30
0.0000
 41
0.5080
 42
0.5080
 43
1.0000
 50
0.0000
  0
INSERT
  8
51
  2
RECT
 10
-13.9700
 20
15.2400
 30
0.0000
 41
0.5080
 42
0.5080
 43
1.0000
 50
0.0000
  0
INSERT
  8
51
  2
RECT
 10
-11.4300
 20
17.7800
 30
0.0000
 41
0.5080
 42
0.5080
 43
1.0000
 50
0.0000
  0
INSERT
  8
51
  2
RECT
 10
-11.4300
 20
15.2400
 30
0.0000
 41
0.5080
 42
0.5080
 43
1.0000
 50
0.0000
  0
INSERT
  8
51
  2
RECT
 10
-8.8900
 20
17.7800
 30
0.0000
 41
0.5080
 42
0.5080
 43
1.0000
 50
0.0000
  0
INSERT
  8
51
  2
RECT
 10
-8.8900
 20
15.2400
 30
0.0000
 41
0.5080
 42
0.5080
 43
1.0000
 50
0.0000
  0
INSERT
  8
51
  2
RECT
 10
-6.3500
 20
17.7800
 30
0.0000
 41
0.5080
 42
0.5080
 43
1.0000
 50
0.0000
  0
INSERT
  8
51
  2
RECT
 10
-6.3500
 20
15.2400
 30
0.0000
 41
0.5080
 42
0.5080
 43
1.0000
 50
0.0000
  0
INSERT
  8
51
  2
RECT
 10
-3.8100
 20
17.7800
 30
0.0000
 41
0.5080
 42
0.5080
 43
1.0000
 50
0.0000
  0
INSERT
  8
51
  2
RECT
 10
-3.8100
 20
15.2400
 30
0.0000
 41
0.5080
 42
0.5080
 43
1.0000
 50
0.0000
  0
INSERT
  8
51
  2
RECT
 10
-1.2700
 20
17.7800
 30
0.0000
 41
0.5080
 42
0.5080
 43
1.0000
 50
0.0000
  0
INSERT
  8
51
  2
RECT
 10
-1.2700
 20
15.2400
 30
0.0000
 41
0.5080
 42
0.5080
 43
1.0000
 50
0.0000
  0
INSERT
  8
51
  2
RECT
 10
1.2700
 20
17.7800
 30
0.0000
 41
0.5080
 42
0.5080
 43
1.0000
 50
0.0000
  0
INSERT
  8
51
  2
RECT
 10
1.2700
 20
15.2400
 30
0.0000
 41
0.5080
 42
0.5080
 43
1.0000
 50
0.0000
  0
INSERT
  8
51
  2
RECT
 10
3.8100
 20
17.7800
 30
0.0000
 41
0.5080
 42
0.5080
 43
1.0000
 50
0.0000
  0
INSERT
  8
51
  2
RECT
 10
3.8100
 20
15.2400
 30
0.0000
 41
0.5080
 42
0.5080
 43
1.0000
 50
0.0000
  0
INSERT
  8
51
  2
RECT
 10
6.3500
 20
17.7800
 30
0.0000
 41
0.5080
 42
0.5080
 43
1.0000
 50
0.0000
  0
INSERT
  8
51
  2
RECT
 10
6.3500
 20
15.2400
 30
0.0000
 41
0.5080
 42
0.5080
 43
1.0000
 50
0.0000
  0
INSERT
  8
51
  2
RECT
 10
8.8900
 20
17.7800
 30
0.0000
 41
0.5080
 42
0.5080
 43
1.0000
 50
0.0000
  0
INSERT
  8
51
  2
RECT
 10
8.8900
 20
15.2400
 30
0.0000
 41
0.5080
 42
0.5080
 43
1.0000
 50
0.0000
  0
INSERT
  8
51
  2
RECT
 10
11.4300
 20
17.7800
 30
0.0000
 41
0.5080
 42
0.5080
 43
1.0000
 50
0.0000
  0
INSERT
  8
51
  2
RECT
 10
11.4300
 20
15.2400
 30
0.0000
 41
0.5080
 42
0.5080
 43
1.0000
 50
0.0000
  0
INSERT
  8
51
  2
RECT
 10
13.9700
 20
17.7800
 30
0.0000
 41
0.5080
 42
0.5080
 43
1.0000
 50
0.0000
  0
INSERT
  8
51
  2
RECT
 10
13.9700
 20
15.2400
 30
0.0000
 41
0.5080
 42
0.5080
 43
1.0000
 50
0.0000
  0
INSERT
  8
51
  2
RECT
 10
16.5100
 20
17.7800
 30
0.0000
 41
0.5080
 42
0.5080
 43
1.0000
 50
0.0000
  0
INSERT
  8
51
  2
RECT
 10
16.5100
 20
15.2400
 30
0.0000
 41
0.5080
 42
0.5080
 43
1.0000
 50
0.0000
  0
INSERT
  8
51
  2
RECT
 10
19.0500
 20
17.7800
 30
0.0000
 41
0.5080
 42
0.5080
 43
1.0000
 50
0.0000
  0
INSERT
  8
51
  2
RECT
 10
19.0500
 20
15.2400
 30
0.0000
 41
0.5080
 42
0.5080
 43
1.0000
 50
0.0000
  0
INSERT
  8
51
  2
RECT
 10
21.5900
 20
17.7800
 30
0.0000
 41
0.5080
 42
0.5080
 43
1.0000
 50
0.0000
  0
INSERT
  8
51
  2
RECT
 10
21.5900
 20
15.2400
 30
0.0000
 41
0.5080
 42
0.5080
 43
1.0000
 50
0.0000
  0
INSERT
  8
51
  2
RECT
 10
24.1300
 20
17.7800
 30
0.0000
 41
0.5080
 42
0.5080
 43
1.0000
 50
0.0000
  0
INSERT
  8
51
  2
RECT
 10
24.1300
 20
15.2400
 30
0.0000
 41
0.5080
 42
0.5080
 43
1.0000
 50
0.0000
  0
INSERT
  8
51
  2
RECT
 10
26.6700
 20
17.7800
 30
0.0000
 41
0.5080
 42
0.5080
 43
1.0000
 50
0.0000
  0
INSERT
  8
51
  2
RECT
 10
26.6700
 20
15.2400
 30
0.0000
 41
0.5080
 42
0.5080
 43
1.0000
 50
0.0000
  0
INSERT
  8
51
  2
RECT
 10
29.2100
 20
17.7800
 30
0.0000
 41
0.5080
 42
0.5080
 43
1.0000
 50
0.0000
  0
INSERT
  8
51
  2
RECT
 10
29.2100
 20
15.2400
 30
0.0000
 41
0.5080
 42
0.5080
 43
1.0000
 50
0.0000
  0
INSERT
  8
51
  2
RECT
 10
31.7500
 20
17.7800
 30
0.0000
 41
0.5080
 42
0.5080
 43
1.0000
 50
0.0000
  0
INSERT
  8
51
  2
RECT
 10
31.7500
 20
15.2400
 30
0.0000
 41
0.5080
 42
0.5080
 43
1.0000
 50
0.0000
  0
INSERT
  8
51
  2
RECT
 10
34.2900
 20
17.7800
 30
0.0000
 41
0.5080
 42
0.5080
 43
1.0000
 50
0.0000
  0
INSERT
  8
51
  2
RECT
 10
34.2900
 20
15.2400
 30
0.0000
 41
0.5080
 42
0.5080
 43
1.0000
 50
0.0000
  0
INSERT
  8
29
  2
OCTAGONP
 10
-39.3700
 20
15.2400
 30
0.0000
 41
1.5660
 42
1.5660
 43
1.0000
 50
0.0000
  0
INSERT
  8
29
  2
OCTAGONP
 10
-39.3700
 20
17.7800
 30
0.0000
 41
1.5660
 42
1.5660
 43
1.0000
 50
0.0000
  0
INSERT
  8
29
  2
OCTAGONP
 10
-36.8300
 20
15.2400
 30
0.0000
 41
1.5660
 42
1.5660
 43
1.0000
 50
0.0000
  0
INSERT
  8
29
  2
OCTAGONP
 10
-36.8300
 20
17.7800
 30
0.0000
 41
1.5660
 42
1.5660
 43
1.0000
 50
0.0000
  0
INSERT
  8
29
  2
OCTAGONP
 10
-34.2900
 20
15.2400
 30
0.0000
 41
1.5660
 42
1.5660
 43
1.0000
 50
0.0000
  0
INSERT
  8
29
  2
OCTAGONP
 10
-34.2900
 20
17.7800
 30
0.0000
 41
1.5660
 42
1.5660
 43
1.0000
 50
0.0000
  0
INSERT
  8
29
  2
OCTAGONP
 10
-31.7500
 20
15.2400
 30
0.0000
 41
1.5660
 42
1.5660
 43
1.0000
 50
0.0000
  0
INSERT
  8
29
  2
OCTAGONP
 10
-31.7500
 20
17.7800
 30
0.0000
 41
1.5660
 42
1.5660
 43
1.0000
 50
0.0000
  0
INSERT
  8
29
  2
OCTAGONP
 10
-29.2100
 20
15.2400
 30
0.0000
 41
1.5660
 42
1.5660
 43
1.0000
 50
0.0000
  0
INSERT
  8
29
  2
OCTAGONP
 10
-29.2100
 20
17.7800
 30
0.0000
 41
1.5660
 42
1.5660
 43
1.0000
 50
0.0000
  0
INSERT
  8
29
  2
OCTAGONP
 10
-26.6700
 20
15.2400
 30
0.0000
 41
1.5660
 42
1.5660
 43
1.0000
 50
0.0000
  0
INSERT
  8
29
  2
OCTAGONP
 10
-26.6700
 20
17.7800
 30
0.0000
 41
1.5660
 42
1.5660
 43
1.0000
 50
0.0000
  0
INSERT
  8
29
  2
OCTAGONP
 10
-24.1300
 20
15.2400
 30
0.0000
 41
1.5660
 42
1.5660
 43
1.0000
 50
0.0000
  0
INSERT
  8
29
  2
OCTAGONP
 10
-24.1300
 20
17.7800
 30
0.0000
 41
1.5660
 42
1.5660
 43
1.0000
 50
0.0000
  0
INSERT
  8
29
  2
OCTAGONP
 10
-21.5900
 20
15.2400
 30
0.0000
 41
1.5660
 42
1.5660
 43
1.0000
 50
0.0000
  0
INSERT
  8
29
  2
OCTAGONP
 10
-21.5900
 20
17.7800
 30
0.0000
 41
1.5660
 42
1.5660
 43
1.0000
 50
0.0000
  0
INSERT
  8
29
  2
OCTAGONP
 10
-19.0500
 20
15.2400
 30
0.0000
 41
1.5660
 42
1.5660
 43
1.0000
 50
0.0000
  0
INSERT
  8
29
  2
OCTAGONP
 10
-19.0500
 20
17.7800
 30
0.0000
 41
1.5660
 42
1.5660
 43
1.0000
 50
0.0000
  0
INSERT
  8
29
  2
OCTAGONP
 10
-16.5100
 20
15.2400
 30
0.0000
 41
1.5660
 42
1.5660
 43
1.0000
 50
0.0000
  0
INSERT
  8
29
  2
OCTAGONP
 10
-16.5100
 20
17.7800
 30
0.0000
 41
1.5660
 42
1.5660
 43
1.0000
 50
0.0000
  0
INSERT
  8
29
  2
OCTAGONP
 10
-13.9700
 20
15.2400
 30
0.0000
 41
1.5660
 42
1.5660
 43
1.0000
 50
0.0000
  0
INSERT
  8
29
  2
OCTAGONP
 10
-13.9700
 20
17.7800
 30
0.0000
 41
1.5660
 42
1.5660
 43
1.0000
 50
0.0000
  0
INSERT
  8
29
  2
OCTAGONP
 10
-11.4300
 20
15.2400
 30
0.0000
 41
1.5660
 42
1.5660
 43
1.0000
 50
0.0000
  0
INSERT
  8
29
  2
OCTAGONP
 10
-11.4300
 20
17.7800
 30
0.0000
 41
1.5660
 42
1.5660
 43
1.0000
 50
0.0000
  0
INSERT
  8
29
  2
OCTAGONP
 10
-8.8900
 20
15.2400
 30
0.0000
 41
1.5660
 42
1.5660
 43
1.0000
 50
0.0000
  0
INSERT
  8
29
  2
OCTAGONP
 10
-8.8900
 20
17.7800
 30
0.0000
 41
1.5660
 42
1.5660
 43
1.0000
 50
0.0000
  0
INSERT
  8
29
  2
OCTAGONP
 10
-6.3500
 20
15.2400
 30
0.0000
 41
1.5660
 42
1.5660
 43
1.0000
 50
0.0000
  0
INSERT
  8
29
  2
OCTAGONP
 10
-6.3500
 20
17.7800
 30
0.0000
 41
1.5660
 42
1.5660
 43
1.0000
 50
0.0000
  0
INSERT
  8
29
  2
OCTAGONP
 10
-3.8100
 20
15.2400
 30
0.0000
 41
1.5660
 42
1.5660
 43
1.0000
 50
0.0000
  0
INSERT
  8
29
  2
OCTAGONP
 10
-3.8100
 20
17.7800
 30
0.0000
 41
1.5660
 42
1.5660
 43
1.0000
 50
0.0000
  0
INSERT
  8
29
  2
OCTAGONP
 10
-1.2700
 20
15.2400
 30
0.0000
 41
1.5660
 42
1.5660
 43
1.0000
 50
0.0000
  0
INSERT
  8
29
  2
OCTAGONP
 10
-1.2700
 20
17.7800
 30
0.0000
 41
1.5660
 42
1.5660
 43
1.0000
 50
0.0000
  0
INSERT
  8
29
  2
OCTAGONP
 10
1.2700
 20
15.2400
 30
0.0000
 41
1.5660
 42
1.5660
 43
1.0000
 50
0.0000
  0
INSERT
  8
29
  2
OCTAGONP
 10
1.2700
 20
17.7800
 30
0.0000
 41
1.5660
 42
1.5660
 43
1.0000
 50
0.0000
  0
INSERT
  8
29
  2
OCTAGONP
 10
3.8100
 20
15.2400
 30
0.0000
 41
1.5660
 42
1.5660
 43
1.0000
 50
0.0000
  0
INSERT
  8
29
  2
OCTAGONP
 10
3.8100
 20
17.7800
 30
0.0000
 41
1.5660
 42
1.5660
 43
1.0000
 50
0.0000
  0
INSERT
  8
29
  2
OCTAGONP
 10
6.3500
 20
15.2400
 30
0.0000
 41
1.5660
 42
1.5660
 43
1.0000
 50
0.0000
  0
INSERT
  8
29
  2
OCTAGONP
 10
6.3500
 20
17.7800
 30
0.0000
 41
1.5660
 42
1.5660
 43
1.0000
 50
0.0000
  0
INSERT
  8
29
  2
OCTAGONP
 10
8.8900
 20
15.2400
 30
0.0000
 41
1.5660
 42
1.5660
 43
1.0000
 50
0.0000
  0
INSERT
  8
29
  2
OCTAGONP
 10
8.8900
 20
17.7800
 30
0.0000
 41
1.5660
 42
1.5660
 43
1.0000
 50
0.0000
  0
INSERT
  8
29
  2
OCTAGONP
 10
11.4300
 20
15.2400
 30
0.0000
 41
1.5660
 42
1.5660
 43
1.0000
 50
0.0000
  0
INSERT
  8
29
  2
OCTAGONP
 10
11.4300
 20
17.7800
 30
0.0000
 41
1.5660
 42
1.5660
 43
1.0000
 50
0.0000
  0
INSERT
  8
29
  2
OCTAGONP
 10
13.9700
 20
15.2400
 30
0.0000
 41
1.5660
 42
1.5660
 43
1.0000
 50
0.0000
  0
INSERT
  8
29
  2
OCTAGONP
 10
13.9700
 20
17.7800
 30
0.0000
 41
1.5660
 42
1.5660
 43
1.0000
 50
0.0000
  0
INSERT
  8
29
  2
OCTAGONP
 10
16.5100
 20
15.2400
 30
0.0000
 41
1.5660
 42
1.5660
 43
1.0000
 50
0.0000
  0
INSERT
  8
29
  2
OCTAGONP
 10
16.5100
 20
17.7800
 30
0.0000
 41
1.5660
 42
1.5660
 43
1.0000
 50
0.0000
  0
INSERT
  8
29
  2
OCTAGONP
 10
19.0500
 20
15.2400
 30
0.0000
 41
1.5660
 42
1.5660
 43
1.0000
 50
0.0000
  0
INSERT
  8
29
  2
OCTAGONP
 10
19.0500
 20
17.7800
 30
0.0000
 41
1.5660
 42
1.5660
 43
1.0000
 50
0.0000
  0
INSERT
  8
29
  2
OCTAGONP
 10
21.5900
 20
15.2400
 30
0.0000
 41
1.5660
 42
1.5660
 43
1.0000
 50
0.0000
  0
INSERT
  8
29
  2
OCTAGONP
 10
21.5900
 20
17.7800
 30
0.0000
 41
1.5660
 42
1.5660
 43
1.0000
 50
0.0000
  0
INSERT
  8
29
  2
OCTAGONP
 10
24.1300
 20
15.2400
 30
0.0000
 41
1.5660
 42
1.5660
 43
1.0000
 50
0.0000
  0
INSERT
  8
29
  2
OCTAGONP
 10
24.1300
 20
17.7800
 30
0.0000
 41
1.5660
 42
1.5660
 43
1.0000
 50
0.0000
  0
INSERT
  8
29
  2
OCTAGONP
 10
26.6700
 20
15.2400
 30
0.0000
 41
1.5660
 42
1.5660
 43
1.0000
 50
0.0000
  0
INSERT
  8
29
  2
OCTAGONP
 10
26.6700
 20
17.7800
 30
0.0000
 41
1.5660
 42
1.5660
 43
1.0000
 50
0.0000
  0
INSERT
  8
29
  2
OCTAGONP
 10
29.2100
 20
15.2400
 30
0.0000
 41
1.5660
 42
1.5660
 43
1.0000
 50
0.0000
  0
INSERT
  8
29
  2
OCTAGONP
 10
29.2100
 20
17.7800
 30
0.0000
 41
1.5660
 42
1.5660
 43
1.0000
 50
0.0000
  0
INSERT
  8
29
  2
OCTAGONP
 10
31.7500
 20
15.2400
 30
0.0000
 41
1.5660
 42
1.5660
 43
1.0000
 50
0.0000
  0
INSERT
  8
29
  2
OCTAGONP
 10
31.7500
 20
17.7800
 30
0.0000
 41
1.5660
 42
1.5660
 43
1.0000
 50
0.0000
  0
INSERT
  8
29
  2
OCTAGONP
 10
34.2900
 20
15.2400
 30
0.0000
 41
1.5660
 42
1.5660
 43
1.0000
 50
0.0000
  0
INSERT
  8
29
  2
OCTAGONP
 10
34.2900
 20
17.7800
 30
0.0000
 41
1.5660
 42
1.5660
 43
1.0000
 50
0.0000
  0
LINE
  8
21
 10
35.5600
 20
-18.4150
 30
0.0000
 11
36.1950
 21
-19.0500
 31
0.0000
  0
LINE
  8
21
 10
37.4650
 20
-19.0500
 30
0.0000
 11
38.1000
 21
-18.4150
 31
0.0000
  0
LINE
  8
21
 10
38.1000
 20
-18.4150
 30
0.0000
 11
38.7350
 21
-19.0500
 31
0.0000
  0
LINE
  8
21
 10
40.0050
 20
-19.0500
 30
0.0000
 11
40.6400
 21
-18.4150
 31
0.0000
  0
LINE
  8
21
 10
35.5600
 20
-18.4150
 30
0.0000
 11
35.5600
 21
-14.6050
 31
0.0000
  0
LINE
  8
21
 10
35.5600
 20
-14.6050
 30
0.0000
 11
36.1950
 21
-13.9700
 31
0.0000
  0
LINE
  8
21
 10
36.1950
 20
-13.9700
 30
0.0000
 11
37.4650
 21
-13.9700
 31
0.0000
  0
LINE
  8
21
 10
37.4650
 20
-13.9700
 30
0.0000
 11
38.1000
 21
-14.6050
 31
0.0000
  0
LINE
  8
21
 10
38.1000
 20
-14.6050
 30
0.0000
 11
38.7350
 21
-13.9700
 31
0.0000
  0
LINE
  8
21
 10
38.7350
 20
-13.9700
 30
0.0000
 11
40.0050
 21
-13.9700
 31
0.0000
  0
LINE
  8
21
 10
40.0050
 20
-13.9700
 30
0.0000
 11
40.6400
 21
-14.6050
 31
0.0000
  0
LINE
  8
21
 10
38.1000
 20
-14.6050
 30
0.0000
 11
38.1000
 21
-18.4150
 31
0.0000
  0
LINE
  8
21
 10
40.6400
 20
-14.6050
 30
0.0000
 11
40.6400
 21
-18.4150
 31
0.0000
  0
LINE
  8
21
 10
38.7350
 20
-19.0500
 30
0.0000
 11
40.0050
 21
-19.0500
 31
0.0000
  0
LINE
  8
21
 10
36.1950
 20
-19.0500
 30
0.0000
 11
37.4650
 21
-19.0500
 31
0.0000
  0
INSERT
  8
51
  2
RECT
 10
36.8300
 20
-17.7800
 30
0.0000
 41
0.5080
 42
0.5080
 43
1.0000
 50
0.0000
  0
INSERT
  8
51
  2
RECT
 10
36.8300
 20
-15.2400
 30
0.0000
 41
0.5080
 42
0.5080
 43
1.0000
 50
0.0000
  0
INSERT
  8
51
  2
RECT
 10
39.3700
 20
-15.2400
 30
0.0000
 41
0.5080
 42
0.5080
 43
1.0000
 50
0.0000
  0
INSERT
  8
51
  2
RECT
 10
39.3700
 20
-17.7800
 30
0.0000
 41
0.5080
 42
0.5080
 43
1.0000
 50
0.0000
  0
INSERT
  8
29
  2
OCTAGONP
 10
36.8300
 20
-17.7800
 30
0.0000
 41
1.5660
 42
1.5660
 43
1.0000
 50
0.0000
  0
INSERT
  8
29
  2
OCTAGONP
 10
36.8300
 20
-15.2400
 30
0.0000
 41
1.5660
 42
1.5660
 43
1.0000
 50
0.0000
  0
INSERT
  8
29
  2
OCTAGONP
 10
39.3700
 20
-17.7800
 30
0.0000
 41
1.5660
 42
1.5660
 43
1.0000
 50
0.0000
  0
INSERT
  8
29
  2
OCTAGONP
 10
39.3700
 20
-15.2400
 30
0.0000
 41
1.5660
 42
1.5660
 43
1.0000
 50
0.0000
  0
LINE
  8
21
 10
35.5600
 20
14.6050
 30
0.0000
 11
36.1950
 21
13.9700
 31
0.0000
  0
LINE
  8
21
 10
37.4650
 20
13.9700
 30
0.0000
 11
38.1000
 21
14.6050
 31
0.0000
  0
LINE
  8
21
 10
38.1000
 20
14.6050
 30
0.0000
 11
38.7350
 21
13.9700
 31
0.0000
  0
LINE
  8
21
 10
40.0050
 20
13.9700
 30
0.0000
 11
40.6400
 21
14.6050
 31
0.0000
  0
LINE
  8
21
 10
35.5600
 20
14.6050
 30
0.0000
 11
35.5600
 21
18.4150
 31
0.0000
  0
LINE
  8
21
 10
35.5600
 20
18.4150
 30
0.0000
 11
36.1950
 21
19.0500
 31
0.0000
  0
LINE
  8
21
 10
36.1950
 20
19.0500
 30
0.0000
 11
37.4650
 21
19.0500
 31
0.0000
  0
LINE
  8
21
 10
37.4650
 20
19.0500
 30
0.0000
 11
38.1000
 21
18.4150
 31
0.0000
  0
LINE
  8
21
 10
38.1000
 20
18.4150
 30
0.0000
 11
38.7350
 21
19.0500
 31
0.0000
  0
LINE
  8
21
 10
38.7350
 20
19.0500
 30
0.0000
 11
40.0050
 21
19.0500
 31
0.0000
  0
LINE
  8
21
 10
40.0050
 20
19.0500
 30
0.0000
 11
40.6400
 21
18.4150
 31
0.0000
  0
LINE
  8
21
 10
38.1000
 20
18.4150
 30
0.0000
 11
38.1000
 21
14.6050
 31
0.0000
  0
LINE
  8
21
 10
40.6400
 20
18.4150
 30
0.0000
 11
40.6400
 21
14.6050
 31
0.0000
  0
LINE
  8
21
 10
38.7350
 20
13.9700
 30
0.0000
 11
40.0050
 21
13.9700
 31
0.0000
  0
LINE
  8
21
 10
36.1950
 20
13.9700
 30
0.0000
 11
37.4650
 21
13.9700
 31
0.0000
  0
INSERT
  8
51
  2
RECT
 10
36.8300
 20
15.2400
 30
0.0000
 41
0.5080
 42
0.5080
 43
1.0000
 50
0.0000
  0
INSERT
  8
51
  2
RECT
 10
36.8300
 20
17.7800
 30
0.0000
 41
0.5080
 42
0.5080
 43
1.0000
 50
0.0000
  0
INSERT
  8
51
  2
RECT
 10
39.3700
 20
17.7800
 30
0.0000
 41
0.5080
 42
0.5080
 43
1.0000
 50
0.0000
  0
INSERT
  8
51
  2
RECT
 10
39.3700
 20
15.2400
 30
0.0000
 41
0.5080
 42
0.5080
 43
1.0000
 50
0.0000
  0
INSERT
  8
29
  2
OCTAGONP
 10
36.8300
 20
15.2400
 30
0.0000
 41
1.5660
 42
1.5660
 43
1.0000
 50
0.0000
  0
INSERT
  8
29
  2
OCTAGONP
 10
36.8300
 20
17.7800
 30
0.0000
 41
1.5660
 42
1.5660
 43
1.0000
 50
0.0000
  0
INSERT
  8
29
  2
OCTAGONP
 10
39.3700
 20
15.2400
 30
0.0000
 41
1.5660
 42
1.5660
 43
1.0000
 50
0.0000
  0
INSERT
  8
29
  2
OCTAGONP
 10
39.3700
 20
17.7800
 30
0.0000
 41
1.5660
 42
1.5660
 43
1.0000
 50
0.0000
  0
LINE
  8
51
 10
8.6062
 20
11.5347
 30
0.0000
 11
8.6062
 21
10.6707
 31
0.0000
  0
LINE
  8
51
 10
9.3182
 20
10.6707
 30
0.0000
 11
9.3182
 21
11.5347
 31
0.0000
  0
INSERT
  8
51
  2
RECT
 10
8.9622
 20
10.4677
 30
0.0000
 41
0.4064
 42
0.8636
 43
1.0000
 50
270.0000
  0
INSERT
  8
51
  2
RECT
 10
8.9622
 20
11.7377
 30
0.0000
 41
0.4064
 42
0.8636
 43
1.0000
 50
270.0000
  0
INSERT
  8
29
  2
RECT5750X6250R30
 10
8.9622
 20
11.9527
 30
0.0000
 41
1.0000
 42
1.0000
 43
1.0000
 50
0.0000
  0
INSERT
  8
29
  2
RECT5750X6250R30
 10
8.9622
 20
10.2527
 30
0.0000
 41
1.0000
 42
1.0000
 43
1.0000
 50
0.0000
  0
LINE
  8
51
 10
-29.6800
 20
9.4000
 30
0.0000
 11
-29.6800
 21
12.6000
 31
0.0000
  0
LINE
  8
21
 10
-29.6800
 20
12.6000
 30
0.0000
 11
-31.2800
 21
12.6000
 31
0.0000
  0
LINE
  8
51
 10
-31.2800
 20
12.6000
 30
0.0000
 11
-31.2800
 21
9.4000
 31
0.0000
  0
LINE
  8
21
 10
-31.2800
 20
9.4000
 30
0.0000
 11
-29.6800
 21
9.4000
 31
0.0000
  0
LINE
  8
51
 10
-30.9800
 20
12.6000
 30
0.0000
 11
-30.9800
 21
9.4000
 31
0.0000
  0
LINE
  8
51
 10
-29.9800
 20
9.4000
 30
0.0000
 11
-29.9800
 21
12.6000
 31
0.0000
  0
INSERT
  8
29
  2
RECT6750X3500R55
 10
-29.5800
 20
9.6200
 30
0.0000
 41
1.0000
 42
1.0000
 43
1.0000
 50
180.0000
  0
INSERT
  8
29
  2
RECT6750X2450R90
 10
-29.5800
 20
10.3600
 30
0.0000
 41
1.0000
 42
1.0000
 43
1.0000
 50
180.0000
  0
INSERT
  8
29
  2
RECT6750X2450R90
 10
-29.5800
 20
11.0000
 30
0.0000
 41
1.0000
 42
1.0000
 43
1.0000
 50
180.0000
  0
INSERT
  8
29
  2
RECT6750X2450R90
 10
-29.5800
 20
11.6400
 30
0.0000
 41
1.0000
 42
1.0000
 43
1.0000
 50
180.0000
  0
INSERT
  8
29
  2
RECT6750X3500R55
 10
-29.5800
 20
12.3800
 30
0.0000
 41
1.0000
 42
1.0000
 43
1.0000
 50
180.0000
  0
INSERT
  8
29
  2
RECT6750X3500R55
 10
-31.3800
 20
12.3800
 30
0.0000
 41
1.0000
 42
1.0000
 43
1.0000
 50
180.0000
  0
INSERT
  8
29
  2
RECT6750X2450R90
 10
-31.3800
 20
11.6400
 30
0.0000
 41
1.0000
 42
1.0000
 43
1.0000
 50
180.0000
  0
INSERT
  8
29
  2
RECT6750X2450R90
 10
-31.3800
 20
11.0000
 30
0.0000
 41
1.0000
 42
1.0000
 43
1.0000
 50
180.0000
  0
INSERT
  8
29
  2
RECT6750X2450R90
 10
-31.3800
 20
10.3600
 30
0.0000
 41
1.0000
 42
1.0000
 43
1.0000
 50
180.0000
  0
INSERT
  8
29
  2
RECT6750X3500R55
 10
-31.3800
 20
9.6200
 30
0.0000
 41
1.0000
 42
1.0000
 43
1.0000
 50
180.0000
  0
LINE
  8
51
 10
-13.5000
 20
12.6000
 30
0.0000
 11
-13.5000
 21
9.4000
 31
0.0000
  0
LINE
  8
21
 10
-13.5000
 20
9.4000
 30
0.0000
 11
-11.9000
 21
9.4000
 31
0.0000
  0
LINE
  8
51
 10
-11.9000
 20
9.4000
 30
0.0000
 11
-11.9000
 21
12.6000
 31
0.0000
  0
LINE
  8
21
 10
-11.9000
 20
12.6000
 30
0.0000
 11
-13.5000
 21
12.6000
 31
0.0000
  0
LINE
  8
51
 10
-12.2000
 20
9.4000
 30
0.0000
 11
-12.2000
 21
12.6000
 31
0.0000
  0
LINE
  8
51
 10
-13.2000
 20
12.6000
 30
0.0000
 11
-13.2000
 21
9.4000
 31
0.0000
  0
INSERT
  8
29
  2
RECT6750X3500R55
 10
-13.6000
 20
12.3800
 30
0.0000
 41
1.0000
 42
1.0000
 43
1.0000
 50
0.0000
  0
INSERT
  8
29
  2
RECT6750X2450R90
 10
-13.6000
 20
11.6400
 30
0.0000
 41
1.0000
 42
1.0000
 43
1.0000
 50
0.0000
  0
INSERT
  8
29
  2
RECT6750X2450R90
 10
-13.6000
 20
11.0000
 30
0.0000
 41
1.0000
 42
1.0000
 43
1.0000
 50
0.0000
  0
INSERT
  8
29
  2
RECT6750X2450R90
 10
-13.6000
 20
10.3600
 30
0.0000
 41
1.0000
 42
1.0000
 43
1.0000
 50
0.0000
  0
INSERT
  8
29
  2
RECT6750X3500R55
 10
-13.6000
 20
9.6200
 30
0.0000
 41
1.0000
 42
1.0000
 43
1.0000
 50
0.0000
  0
INSERT
  8
29
  2
RECT6750X3500R55
 10
-11.8000
 20
9.6200
 30
0.0000
 41
1.0000
 42
1.0000
 43
1.0000
 50
0.0000
  0
INSERT
  8
29
  2
RECT6750X2450R90
 10
-11.8000
 20
10.3600
 30
0.0000
 41
1.0000
 42
1.0000
 43
1.0000
 50
0.0000
  0
INSERT
  8
29
  2
RECT6750X2450R90
 10
-11.8000
 20
11.0000
 30
0.0000
 41
1.0000
 42
1.0000
 43
1.0000
 50
0.0000
  0
INSERT
  8
29
  2
RECT6750X2450R90
 10
-11.8000
 20
11.6400
 30
0.0000
 41
1.0000
 42
1.0000
 43
1.0000
 50
0.0000
  0
INSERT
  8
29
  2
RECT6750X3500R55
 10
-11.8000
 20
12.3800
 30
0.0000
 41
1.0000
 42
1.0000
 43
1.0000
 50
0.0000
  0
LINE
  8
51
 10
11.9000
 20
12.6000
 30
0.0000
 11
11.9000
 21
9.4000
 31
0.0000
  0
LINE
  8
21
 10
11.9000
 20
9.4000
 30
0.0000
 11
13.5000
 21
9.4000
 31
0.0000
  0
LINE
  8
51
 10
13.5000
 20
9.4000
 30
0.0000
 11
13.5000
 21
12.6000
 31
0.0000
  0
LINE
  8
21
 10
13.5000
 20
12.6000
 30
0.0000
 11
11.9000
 21
12.6000
 31
0.0000
  0
LINE
  8
51
 10
13.2000
 20
9.4000
 30
0.0000
 11
13.2000
 21
12.6000
 31
0.0000
  0
LINE
  8
51
 10
12.2000
 20
12.6000
 30
0.0000
 11
12.2000
 21
9.4000
 31
0.0000
  0
INSERT
  8
29
  2
RECT6750X3500R55
 10
11.8000
 20
12.3800
 30
0.0000
 41
1.0000
 42
1.0000
 43
1.0000
 50
0.0000
  0
INSERT
  8
29
  2
RECT6750X2450R90
 10
11.8000
 20
11.6400
 30
0.0000
 41
1.0000
 42
1.0000
 43
1.0000
 50
0.0000
  0
INSERT
  8
29
  2
RECT6750X2450R90
 10
11.8000
 20
11.0000
 30
0.0000
 41
1.0000
 42
1.0000
 43
1.0000
 50
0.0000
  0
INSERT
  8
29
  2
RECT6750X2450R90
 10
11.8000
 20
10.3600
 30
0.0000
 41
1.0000
 42
1.0000
 43
1.0000
 50
0.0000
  0
INSERT
  8
29
  2
RECT6750X3500R55
 10
11.8000
 20
9.6200
 30
0.0000
 41
1.0000
 42
1.0000
 43
1.0000
 50
0.0000
  0
INSERT
  8
29
  2
RECT6750X3500R55
 10
13.6000
 20
9.6200
 30
0.0000
 41
1.0000
 42
1.0000
 43
1.0000
 50
0.0000
  0
INSERT
  8
29
  2
RECT6750X2450R90
 10
13.6000
 20
10.3600
 30
0.0000
 41
1.0000
 42
1.0000
 43
1.0000
 50
0.0000
  0
INSERT
  8
29
  2
RECT6750X2450R90
 10
13.6000
 20
11.0000
 30
0.0000
 41
1.0000
 42
1.0000
 43
1.0000
 50
0.0000
  0
INSERT
  8
29
  2
RECT6750X2450R90
 10
13.6000
 20
11.6400
 30
0.0000
 41
1.0000
 42
1.0000
 43
1.0000
 50
0.0000
  0
INSERT
  8
29
  2
RECT6750X3500R55
 10
13.6000
 20
12.3800
 30
0.0000
 41
1.0000
 42
1.0000
 43
1.0000
 50
0.0000
  0
LINE
  8
51
 10
29.6800
 20
12.6000
 30
0.0000
 11
29.6800
 21
9.4000
 31
0.0000
  0
LINE
  8
21
 10
29.6800
 20
9.4000
 30
0.0000
 11
31.2800
 21
9.4000
 31
0.0000
  0
LINE
  8
51
 10
31.2800
 20
9.4000
 30
0.0000
 11
31.2800
 21
12.6000
 31
0.0000
  0
LINE
  8
21
 10
31.2800
 20
12.6000
 30
0.0000
 11
29.6800
 21
12.6000
 31
0.0000
  0
LINE
  8
51
 10
30.9800
 20
9.4000
 30
0.0000
 11
30.9800
 21
12.6000
 31
0.0000
  0
LINE
  8
51
 10
29.9800
 20
12.6000
 30
0.0000
 11
29.9800
 21
9.4000
 31
0.0000
  0
INSERT
  8
29
  2
RECT6750X3500R55
 10
29.5800
 20
12.3800
 30
0.0000
 41
1.0000
 42
1.0000
 43
1.0000
 50
0.0000
  0
INSERT
  8
29
  2
RECT6750X2450R90
 10
29.5800
 20
11.6400
 30
0.0000
 41
1.0000
 42
1.0000
 43
1.0000
 50
0.0000
  0
INSERT
  8
29
  2
RECT6750X2450R90
 10
29.5800
 20
11.0000
 30
0.0000
 41
1.0000
 42
1.0000
 43
1.0000
 50
0.0000
  0
INSERT
  8
29
  2
RECT6750X2450R90
 10
29.5800
 20
10.3600
 30
0.0000
 41
1.0000
 42
1.0000
 43
1.0000
 50
0.0000
  0
INSERT
  8
29
  2
RECT6750X3500R55
 10
29.5800
 20
9.6200
 30
0.0000
 41
1.0000
 42
1.0000
 43
1.0000
 50
0.0000
  0
INSERT
  8
29
  2
RECT6750X3500R55
 10
31.3800
 20
9.6200
 30
0.0000
 41
1.0000
 42
1.0000
 43
1.0000
 50
0.0000
  0
INSERT
  8
29
  2
RECT6750X2450R90
 10
31.3800
 20
10.3600
 30
0.0000
 41
1.0000
 42
1.0000
 43
1.0000
 50
0.0000
  0
INSERT
  8
29
  2
RECT6750X2450R90
 10
31.3800
 20
11.0000
 30
0.0000
 41
1.0000
 42
1.0000
 43
1.0000
 50
0.0000
  0
INSERT
  8
29
  2
RECT6750X2450R90
 10
31.3800
 20
11.6400
 30
0.0000
 41
1.0000
 42
1.0000
 43
1.0000
 50
0.0000
  0
INSERT
  8
29
  2
RECT6750X3500R55
 10
31.3800
 20
12.3800
 30
0.0000
 41
1.0000
 42
1.0000
 43
1.0000
 50
0.0000
  0
LINE
  8
51
 10
-29.6800
 20
-12.6000
 30
0.0000
 11
-29.6800
 21
-9.4000
 31
0.0000
  0
LINE
  8
21
 10
-29.6800
 20
-9.4000
 30
0.0000
 11
-31.2800
 21
-9.4000
 31
0.0000
  0
LINE
  8
51
 10
-31.2800
 20
-9.4000
 30
0.0000
 11
-31.2800
 21
-12.6000
 31
0.0000
  0
LINE
  8
21
 10
-31.2800
 20
-12.6000
 30
0.0000
 11
-29.6800
 21
-12.6000
 31
0.0000
  0
LINE
  8
51
 10
-30.9800
 20
-9.4000
 30
0.0000
 11
-30.9800
 21
-12.6000
 31
0.0000
  0
LINE
  8
51
 10
-29.9800
 20
-12.6000
 30
0.0000
 11
-29.9800
 21
-9.4000
 31
0.0000
  0
INSERT
  8
29
  2
RECT6750X3500R55
 10
-29.5800
 20
-12.3800
 30
0.0000
 41
1.0000
 42
1.0000
 43
1.0000
 50
180.0000
  0
INSERT
  8
29
  2
RECT6750X2450R90
 10
-29.5800
 20
-11.6400
 30
0.0000
 41
1.0000
 42
1.0000
 43
1.0000
 50
180.0000
  0
INSERT
  8
29
  2
RECT6750X2450R90
 10
-29.5800
 20
-11.0000
 30
0.0000
 41
1.0000
 42
1.0000
 43
1.0000
 50
180.0000
  0
INSERT
  8
29
  2
RECT6750X2450R90
 10
-29.5800
 20
-10.3600
 30
0.0000
 41
1.0000
 42
1.0000
 43
1.0000
 50
180.0000
  0
INSERT
  8
29
  2
RECT6750X3500R55
 10
-29.5800
 20
-9.6200
 30
0.0000
 41
1.0000
 42
1.0000
 43
1.0000
 50
180.0000
  0
INSERT
  8
29
  2
RECT6750X3500R55
 10
-31.3800
 20
-9.6200
 30
0.0000
 41
1.0000
 42
1.0000
 43
1.0000
 50
180.0000
  0
INSERT
  8
29
  2
RECT6750X2450R90
 10
-31.3800
 20
-10.3600
 30
0.0000
 41
1.0000
 42
1.0000
 43
1.0000
 50
180.0000
  0
INSERT
  8
29
  2
RECT6750X2450R90
 10
-31.3800
 20
-11.0000
 30
0.0000
 41
1.0000
 42
1.0000
 43
1.0000
 50
180.0000
  0
INSERT
  8
29
  2
RECT6750X2450R90
 10
-31.3800
 20
-11.6400
 30
0.0000
 41
1.0000
 42
1.0000
 43
1.0000
 50
180.0000
  0
INSERT
  8
29
  2
RECT6750X3500R55
 10
-31.3800
 20
-12.3800
 30
0.0000
 41
1.0000
 42
1.0000
 43
1.0000
 50
180.0000
  0
LINE
  8
51
 10
-11.9000
 20
-12.6000
 30
0.0000
 11
-11.9000
 21
-9.4000
 31
0.0000
  0
LINE
  8
21
 10
-11.9000
 20
-9.4000
 30
0.0000
 11
-13.5000
 21
-9.4000
 31
0.0000
  0
LINE
  8
51
 10
-13.5000
 20
-9.4000
 30
0.0000
 11
-13.5000
 21
-12.6000
 31
0.0000
  0
LINE
  8
21
 10
-13.5000
 20
-12.6000
 30
0.0000
 11
-11.9000
 21
-12.6000
 31
0.0000
  0
LINE
  8
51
 10
-13.2000
 20
-9.4000
 30
0.0000
 11
-13.2000
 21
-12.6000
 31
0.0000
  0
LINE
  8
51
 10
-12.2000
 20
-12.6000
 30
0.0000
 11
-12.2000
 21
-9.4000
 31
0.0000
  0
INSERT
  8
29
  2
RECT6750X3500R55
 10
-11.8000
 20
-12.3800
 30
0.0000
 41
1.0000
 42
1.0000
 43
1.0000
 50
180.0000
  0
INSERT
  8
29
  2
RECT6750X2450R90
 10
-11.8000
 20
-11.6400
 30
0.0000
 41
1.0000
 42
1.0000
 43
1.0000
 50
180.0000
  0
INSERT
  8
29
  2
RECT6750X2450R90
 10
-11.8000
 20
-11.0000
 30
0.0000
 41
1.0000
 42
1.0000
 43
1.0000
 50
180.0000
  0
INSERT
  8
29
  2
RECT6750X2450R90
 10
-11.8000
 20
-10.3600
 30
0.0000
 41
1.0000
 42
1.0000
 43
1.0000
 50
180.0000
  0
INSERT
  8
29
  2
RECT6750X3500R55
 10
-11.8000
 20
-9.6200
 30
0.0000
 41
1.0000
 42
1.0000
 43
1.0000
 50
180.0000
  0
INSERT
  8
29
  2
RECT6750X3500R55
 10
-13.6000
 20
-9.6200
 30
0.0000
 41
1.0000
 42
1.0000
 43
1.0000
 50
180.0000
  0
INSERT
  8
29
  2
RECT6750X2450R90
 10
-13.6000
 20
-10.3600
 30
0.0000
 41
1.0000
 42
1.0000
 43
1.0000
 50
180.0000
  0
INSERT
  8
29
  2
RECT6750X2450R90
 10
-13.6000
 20
-11.0000
 30
0.0000
 41
1.0000
 42
1.0000
 43
1.0000
 50
180.0000
  0
INSERT
  8
29
  2
RECT6750X2450R90
 10
-13.6000
 20
-11.6400
 30
0.0000
 41
1.0000
 42
1.0000
 43
1.0000
 50
180.0000
  0
INSERT
  8
29
  2
RECT6750X3500R55
 10
-13.6000
 20
-12.3800
 30
0.0000
 41
1.0000
 42
1.0000
 43
1.0000
 50
180.0000
  0
LINE
  8
51
 10
13.5000
 20
-12.6000
 30
0.0000
 11
13.5000
 21
-9.4000
 31
0.0000
  0
LINE
  8
21
 10
13.5000
 20
-9.4000
 30
0.0000
 11
11.9000
 21
-9.4000
 31
0.0000
  0
LINE
  8
51
 10
11.9000
 20
-9.4000
 30
0.0000
 11
11.9000
 21
-12.6000
 31
0.0000
  0
LINE
  8
21
 10
11.9000
 20
-12.6000
 30
0.0000
 11
13.5000
 21
-12.6000
 31
0.0000
  0
LINE
  8
51
 10
12.2000
 20
-9.4000
 30
0.0000
 11
12.2000
 21
-12.6000
 31
0.0000
  0
LINE
  8
51
 10
13.2000
 20
-12.6000
 30
0.0000
 11
13.2000
 21
-9.4000
 31
0.0000
  0
INSERT
  8
29
  2
RECT6750X3500R55
 10
13.6000
 20
-12.3800
 30
0.0000
 41
1.0000
 42
1.0000
 43
1.0000
 50
180.0000
  0
INSERT
  8
29
  2
RECT6750X2450R90
 10
13.6000
 20
-11.6400
 30
0.0000
 41
1.0000
 42
1.0000
 43
1.0000
 50
180.0000
  0
INSERT
  8
29
  2
RECT6750X2450R90
 10
13.6000
 20
-11.0000
 30
0.0000
 41
1.0000
 42
1.0000
 43
1.0000
 50
180.0000
  0
INSERT
  8
29
  2
RECT6750X2450R90
 10
13.6000
 20
-10.3600
 30
0.0000
 41
1.0000
 42
1.0000
 43
1.0000
 50
180.0000
  0
INSERT
  8
29
  2
RECT6750X3500R55
 10
13.6000
 20
-9.6200
 30
0.0000
 41
1.0000
 42
1.0000
 43
1.0000
 50
180.0000
  0
INSERT
  8
29
  2
RECT6750X3500R55
 10
11.8000
 20
-9.6200
 30
0.0000
 41
1.0000
 42
1.0000
 43
1.0000
 50
180.0000
  0
INSERT
  8
29
  2
RECT6750X2450R90
 10
11.8000
 20
-10.3600
 30
0.0000
 41
1.0000
 42
1.0000
 43
1.0000
 50
180.0000
  0
INSERT
  8
29
  2
RECT6750X2450R90
 10
11.8000
 20
-11.0000
 30
0.0000
 41
1.0000
 42
1.0000
 43
1.0000
 50
180.0000
  0
INSERT
  8
29
  2
RECT6750X2450R90
 10
11.8000
 20
-11.6400
 30
0.0000
 41
1.0000
 42
1.0000
 43
1.0000
 50
180.0000
  0
INSERT
  8
29
  2
RECT6750X3500R55
 10
11.8000
 20
-12.3800
 30
0.0000
 41
1.0000
 42
1.0000
 43
1.0000
 50
180.0000
  0
LINE
  8
51
 10
31.2800
 20
-12.6000
 30
0.0000
 11
31.2800
 21
-9.4000
 31
0.0000
  0
LINE
  8
21
 10
31.2800
 20
-9.4000
 30
0.0000
 11
29.6800
 21
-9.4000
 31
0.0000
  0
LINE
  8
51
 10
29.6800
 20
-9.4000
 30
0.0000
 11
29.6800
 21
-12.6000
 31
0.0000
  0
LINE
  8
21
 10
29.6800
 20
-12.6000
 30
0.0000
 11
31.2800
 21
-12.6000
 31
0.0000
  0
LINE
  8
51
 10
29.9800
 20
-9.4000
 30
0.0000
 11
29.9800
 21
-12.6000
 31
0.0000
  0
LINE
  8
51
 10
30.9800
 20
-12.6000
 30
0.0000
 11
30.9800
 21
-9.4000
 31
0.0000
  0
INSERT
  8
29
  2
RECT6750X3500R55
 10
31.3800
 20
-12.3800
 30
0.0000
 41
1.0000
 42
1.0000
 43
1.0000
 50
180.0000
  0
INSERT
  8
29
  2
RECT6750X2450R90
 10
31.3800
 20
-11.6400
 30
0.0000
 41
1.0000
 42
1.0000
 43
1.0000
 50
180.0000
  0
INSERT
  8
29
  2
RECT6750X2450R90
 10
31.3800
 20
-11.0000
 30
0.0000
 41
1.0000
 42
1.0000
 43
1.0000
 50
180.0000
  0
INSERT
  8
29
  2
RECT6750X2450R90
 10
31.3800
 20
-10.3600
 30
0.0000
 41
1.0000
 42
1.0000
 43
1.0000
 50
180.0000
  0
INSERT
  8
29
  2
RECT6750X3500R55
 10
31.3800
 20
-9.6200
 30
0.0000
 41
1.0000
 42
1.0000
 43
1.0000
 50
180.0000
  0
INSERT
  8
29
  2
RECT6750X3500R55
 10
29.5800
 20
-9.6200
 30
0.0000
 41
1.0000
 42
1.0000
 43
1.0000
 50
180.0000
  0
INSERT
  8
29
  2
RECT6750X2450R90
 10
29.5800
 20
-10.3600
 30
0.0000
 41
1.0000
 42
1.0000
 43
1.0000
 50
180.0000
  0
INSERT
  8
29
  2
RECT6750X2450R90
 10
29.5800
 20
-11.0000
 30
0.0000
 41
1.0000
 42
1.0000
 43
1.0000
 50
180.0000
  0
INSERT
  8
29
  2
RECT6750X2450R90
 10
29.5800
 20
-11.6400
 30
0.0000
 41
1.0000
 42
1.0000
 43
1.0000
 50
180.0000
  0
INSERT
  8
29
  2
RECT6750X3500R55
 10
29.5800
 20
-12.3800
 30
0.0000
 41
1.0000
 42
1.0000
 43
1.0000
 50
180.0000
  0
CIRCLE
  8
20
 10
7.8039
 20
11.1365
 30
0.0000
 40
0.4500
  0
CIRCLE
  8
29
 10
7.8039
 20
11.1365
 30
0.0000
 40
0.5250
  0
CIRCLE
  8
20
 10
2.7239
 20
10.1205
 30
0.0000
 40
0.4500
  0
CIRCLE
  8
29
 10
2.7239
 20
10.1205
 30
0.0000
 40
0.5250
  0
CIRCLE
  8
20
 10
2.7239
 20
12.1525
 30
0.0000
 40
0.4500
  0
CIRCLE
  8
29
 10
2.7239
 20
12.1525
 30
0.0000
 40
0.5250
  0
INSERT
  8
29
  2
RECT4687X5449R39
 10
5.2639
 20
11.6953
 30
0.0000
 41
1.0000
 42
1.0000
 43
1.0000
 50
180.0000
  0
INSERT
  8
29
  2
RECT4687X5449R39
 10
3.9939
 20
10.5777
 30
0.0000
 41
1.0000
 42
1.0000
 43
1.0000
 50
180.0000
  0
INSERT
  8
29
  2
RECT4687X5449R39
 10
6.5339
 20
11.6953
 30
0.0000
 41
1.0000
 42
1.0000
 43
1.0000
 50
180.0000
  0
INSERT
  8
29
  2
RECT4687X5449R39
 10
3.9939
 20
11.6953
 30
0.0000
 41
1.0000
 42
1.0000
 43
1.0000
 50
180.0000
  0
INSERT
  8
29
  2
RECT4687X5449R39
 10
5.2639
 20
10.5777
 30
0.0000
 41
1.0000
 42
1.0000
 43
1.0000
 50
180.0000
  0
INSERT
  8
29
  2
RECT4687X5449R39
 10
6.5339
 20
10.5777
 30
0.0000
 41
1.0000
 42
1.0000
 43
1.0000
 50
180.0000
  0
LINE
  8
51
 10
-6.5847
 20
-6.9474
 30
0.0000
 11
-8.8474
 21
-4.6847
 31
0.0000
  0
LINE
  8
51
 10
-8.8474
 20
-4.6847
 30
0.0000
 11
-10.6152
 21
-6.4525
 31
0.0000
  0
LINE
  8
51
 10
-10.6152
 20
-6.4525
 30
0.0000
 11
-8.3525
 21
-8.7152
 31
0.0000
  0
LINE
  8
51
 10
-8.3525
 20
-8.7152
 30
0.0000
 11
-6.5847
 21
-6.9474
 31
0.0000
  0
LINE
  8
21
 10
-9.3071
 20
-7.7606
 30
0.0000
 11
-9.6606
 21
-7.4071
 31
0.0000
  0
LINE
  8
21
 10
-7.5039
 20
-7.8667
 30
0.0000
 11
-7.4332
 21
-7.7960
 31
0.0000
  0
LINE
  8
21
 10
-9.7667
 20
-5.6039
 30
0.0000
 11
-9.6960
 21
-5.5332
 31
0.0000
  0
LINE
  8
21
 10
-7.5393
 20
-5.9928
 30
0.0000
 11
-7.8928
 21
-5.6393
 31
0.0000
  0
INSERT
  8
29
  2
RECT7750X6500R27
 10
-7.2564
 20
-6.9121
 30
0.0000
 41
1.0000
 42
1.0000
 43
1.0000
 50
135.0000
  0
INSERT
  8
29
  2
RECT7750X6500R27
 10
-8.8121
 20
-5.3564
 30
0.0000
 41
1.0000
 42
1.0000
 43
1.0000
 50
135.0000
  0
INSERT
  8
29
  2
RECT7750X6500R27
 10
-9.9435
 20
-6.4878
 30
0.0000
 41
1.0000
 42
1.0000
 43
1.0000
 50
135.0000
  0
INSERT
  8
29
  2
RECT7750X6500R27
 10
-8.3878
 20
-8.0435
 30
0.0000
 41
1.0000
 42
1.0000
 43
1.0000
 50
135.0000
  0
LINE
  8
21
 10
44.6060
 20
-5.9944
 30
0.0000
 11
44.6060
 21
5.9898
 31
0.0000
  0
LINE
  8
21
 10
28.1134
 20
-5.9944
 30
0.0000
 11
28.1134
 21
5.9998
 31
0.0000
  0
LINE
  8
21
 10
28.1188
 20
-5.9998
 30
0.0000
 11
44.5960
 21
-5.9998
 31
0.0000
  0
LINE
  8
21
 10
28.1242
 20
5.9998
 30
0.0000
 11
44.6006
 21
5.9998
 31
0.0000
  0
LINE
  8
21
 10
28.1100
 20
-3.3000
 30
0.0000
 11
28.0000
 21
-3.3000
 31
0.0000
  0
LINE
  8
21
 10
28.0000
 20
-3.3000
 30
0.0000
 11
28.0000
 21
3.3000
 31
0.0000
  0
LINE
  8
21
 10
28.0000
 20
3.3000
 30
0.0000
 11
28.1100
 21
3.3000
 31
0.0000
  0
INSERT
  8
29
  2
OCTAGONP
 10
31.7000
 20
-1.2500
 30
0.0000
 41
1.7500
 42
1.7500
 43
1.0000
 50
90.0000
  0
INSERT
  8
29
  2
OCTAGONP
 10
29.4988
 20
-1.2500
 30
0.0000
 41
1.7500
 42
1.7500
 43
1.0000
 50
270.0000
  0
INSERT
  8
29
  2
OCTAGONP
 10
31.7000
 20
1.2500
 30
0.0000
 41
1.7500
 42
1.7500
 43
1.0000
 50
90.0000
  0
INSERT
  8
29
  2
ROUNDP
 10
34.3078
 20
-6.0198
 30
0.0000
 41
3.4520
 42
3.4520
 43
1.0000
 50
180.0000
  0
INSERT
  8
29
  2
ROUNDP
 10
34.3078
 20
5.9998
 30
0.0000
 41
3.4520
 42
3.4520
 43
1.0000
 50
180.0000
  0
INSERT
  8
29
  2
OCTAGONP
 10
29.4988
 20
1.2500
 30
0.0000
 41
1.7500
 42
1.7500
 43
1.0000
 50
270.0000
  0
LINE
  8
19
 10
-13.6000
 20
9.6200
 30
0.0000
 11
-13.1800
 21
9.6200
 31
0.0000
  0
ENDSEC
  0
EOF
