  0
SECTION
  2
HEADER
  9
$ACADVER
  1
AC1009
  9
$FILLMODE
 70
1
  9
$EXTMIN
 10
-5.0944
 20
-14.5152
 30
0.0000
  9
$EXTMAX
 10
44.6464
 20
14.4128
 30
0.0000
  0
ENDSEC
  0
SECTION
  2
TABLES
  0
TABLE
  2
LTYPE
 70
1
  0
LTYPE
  2
CONTINUOUS
 70
64
  3
Solid line
 72
65
 73
0
 40
0
  0
ENDTAB
  0
TABLE
  2
LAYER
 70
255
  0
LAYER
  2
19
 70
64
 62
2
  6
CONTINUOUS
  0
LAYER
  2
20
 70
64
 62
7
  6
CONTINUOUS
  0
LAYER
  2
21
 70
64
 62
253
  6
CONTINUOUS
  0
LAYER
  2
45
 70
64
 62
253
  6
CONTINUOUS
  0
LAYER
  2
48
 70
64
 62
253
  6
CONTINUOUS
  0
LAYER
  2
51
 70
64
 62
253
  6
CONTINUOUS
  0
ENDTAB
  0
ENDSEC
  0
SECTION
  2
BLOCKS
  0
BLOCK
  8
0
  2
RECT
 70
64
 10
0.0000
 20
0.0000
 30
0.0000
  3
RECT
  0
SOLID
  8
0
 10
-0.5000
 20
-0.5000
 30
0.0000
 11
0.5000
 21
-0.5000
 31
0.0000
 12
-0.5000
 22
0.5000
 32
0.0000
 13
0.5000
 23
0.5000
 33
0.0000
  0
ENDBLK
  8
0
  0
BLOCK
  8
0
  2
PIE
 70
64
 10
0.0000
 20
0.0000
 30
0.0000
  3
PIE
  0
POLYLINE
  8
0
 66
1
 10
0.0000
 20
0.0000
 30
0.0000
 40
0.5000
 41
0.5000
 70
0
  0
VERTEX
  8
0
 10
0.0000
 20
-0.2500
 30
0.0000
 42
1.0000
  0
VERTEX
  8
0
 10
0.0000
 20
0.2500
 30
0.0000
 42
1.0000
  0
VERTEX
  8
0
 10
0.0000
 20
-0.2500
 30
0.0000
  0
SEQEND
  8
0
  0
ENDBLK
  8
0
  0
BLOCK
  8
0
  2
OCTAGONP
 70
64
 10
0.0000
 20
0.0000
 30
0.0000
  3
OCTAGONP
  0
POLYLINE
  8
0
 66
1
 10
0.0000
 20
0.0000
 30
0.0000
 40
0.5000
 41
0.5000
 70
0
  0
VERTEX
  8
0
 10
-0.2500
 20
-0.1036
 30
0.0000
  0
VERTEX
  8
0
 10
-0.2500
 20
0.1036
 30
0.0000
  0
VERTEX
  8
0
 10
-0.1036
 20
0.2500
 30
0.0000
  0
VERTEX
  8
0
 10
0.1036
 20
0.2500
 30
0.0000
  0
VERTEX
  8
0
 10
0.2500
 20
0.1036
 30
0.0000
  0
VERTEX
  8
0
 10
0.2500
 20
-0.1036
 30
0.0000
  0
VERTEX
  8
0
 10
0.1036
 20
-0.2500
 30
0.0000
  0
VERTEX
  8
0
 10
-0.1036
 20
-0.2500
 30
0.0000
  0
VERTEX
  8
0
 10
-0.2500
 20
-0.1036
 30
0.0000
  0
VERTEX
  8
0
 10
-0.2500
 20
0.1036
 30
0.0000
  0
SEQEND
  8
0
  0
ENDBLK
  8
0
  0
BLOCK
  8
0
  2
SQUAREP
 70
64
 10
0.0000
 20
0.0000
 30
0.0000
  3
SQUAREP
  0
SOLID
  8
0
 10
-0.5000
 20
-0.5000
 30
0.0000
 11
0.5000
 21
-0.5000
 31
0.0000
 12
-0.5000
 22
0.5000
 32
0.0000
 13
0.5000
 23
0.5000
 33
0.0000
  0
ENDBLK
  8
0
  0
BLOCK
  8
0
  2
ROUNDP
 70
64
 10
0.0000
 20
0.0000
 30
0.0000
  3
ROUNDP
  0
POLYLINE
  8
0
 66
1
 10
0.0000
 20
0.0000
 30
0.0000
 40
0.5000
 41
0.5000
 70
0
  0
VERTEX
  8
0
 10
0.0000
 20
-0.2500
 30
0.0000
 42
1.0000
  0
VERTEX
  8
0
 10
0.0000
 20
0.2500
 30
0.0000
 42
1.0000
  0
VERTEX
  8
0
 10
0.0000
 20
-0.2500
 30
0.0000
  0
SEQEND
  8
0
  0
ENDBLK
  8
0
  0
BLOCK
  8
0
  2
ANNULUSP
 70
64
 10
0.0000
 20
0.0000
 30
0.0000
  3
ANNULUSP
  0
POLYLINE
  8
0
 66
1
 10
0.0000
 20
0.0000
 30
0.0000
 40
0.5000
 41
0.5000
 70
0
  0
VERTEX
  8
0
 10
0.0000
 20
-0.2500
 30
0.0000
 42
1.0000
  0
VERTEX
  8
0
 10
0.0000
 20
0.2500
 30
0.0000
 42
1.0000
  0
VERTEX
  8
0
 10
0.0000
 20
-0.2500
 30
0.0000
  0
SEQEND
  8
0
  0
ENDBLK
  8
0
  0
BLOCK
  8
0
  2
THERMALP
 70
64
 10
0.0000
 20
0.0000
 30
0.0000
  3
THERMALP
  0
POLYLINE
  8
0
 66
1
 10
0.0000
 20
0.0000
 30
0.0000
 40
0.1000
 41
0.1000
 70
0
  0
VERTEX
  8
0
 10
-0.2379
 20
0.4500
 30
0.0000
  0
VERTEX
  8
0
 10
0.2379
 20
0.4500
 30
0.0000
  0
SEQEND
  8
0
  0
POLYLINE
  8
0
 66
1
 10
0.0000
 20
0.0000
 30
0.0000
 40
0.0500
 41
0.0500
 70
0
  0
VERTEX
  8
0
 10
0.2379
 20
0.4250
 30
0.0000
 42
1.0000
  0
VERTEX
  8
0
 10
0.2379
 20
0.4750
 30
0.0000
  0
SEQEND
  8
0
  0
POLYLINE
  8
0
 66
1
 10
0.0000
 20
0.0000
 30
0.0000
 40
0.0500
 41
0.0500
 70
0
  0
VERTEX
  8
0
 10
-0.2379
 20
0.4750
 30
0.0000
 42
1.0000
  0
VERTEX
  8
0
 10
-0.2379
 20
0.4250
 30
0.0000
  0
SEQEND
  8
0
  0
POLYLINE
  8
0
 66
1
 10
0.0000
 20
0.0000
 30
0.0000
 40
0.1000
 41
0.1000
 70
0
  0
VERTEX
  8
0
 10
0.4500
 20
0.2379
 30
0.0000
  0
VERTEX
  8
0
 10
0.4500
 20
-0.2379
 30
0.0000
  0
SEQEND
  8
0
  0
POLYLINE
  8
0
 66
1
 10
0.0000
 20
0.0000
 30
0.0000
 40
0.0500
 41
0.0500
 70
0
  0
VERTEX
  8
0
 10
0.4250
 20
-0.2379
 30
0.0000
 42
1.0000
  0
VERTEX
  8
0
 10
0.4750
 20
-0.2379
 30
0.0000
  0
SEQEND
  8
0
  0
POLYLINE
  8
0
 66
1
 10
0.0000
 20
0.0000
 30
0.0000
 40
0.0500
 41
0.0500
 70
0
  0
VERTEX
  8
0
 10
0.4750
 20
0.2379
 30
0.0000
 42
1.0000
  0
VERTEX
  8
0
 10
0.4250
 20
0.2379
 30
0.0000
  0
SEQEND
  8
0
  0
POLYLINE
  8
0
 66
1
 10
0.0000
 20
0.0000
 30
0.0000
 40
0.1000
 41
0.1000
 70
0
  0
VERTEX
  8
0
 10
0.2379
 20
-0.4500
 30
0.0000
  0
VERTEX
  8
0
 10
-0.2379
 20
-0.4500
 30
0.0000
  0
SEQEND
  8
0
  0
POLYLINE
  8
0
 66
1
 10
0.0000
 20
0.0000
 30
0.0000
 40
0.0500
 41
0.0500
 70
0
  0
VERTEX
  8
0
 10
-0.2379
 20
-0.4250
 30
0.0000
 42
1.0000
  0
VERTEX
  8
0
 10
-0.2379
 20
-0.4750
 30
0.0000
  0
SEQEND
  8
0
  0
POLYLINE
  8
0
 66
1
 10
0.0000
 20
0.0000
 30
0.0000
 40
0.0500
 41
0.0500
 70
0
  0
VERTEX
  8
0
 10
0.2379
 20
-0.4750
 30
0.0000
 42
1.0000
  0
VERTEX
  8
0
 10
0.2379
 20
-0.4250
 30
0.0000
  0
SEQEND
  8
0
  0
POLYLINE
  8
0
 66
1
 10
0.0000
 20
0.0000
 30
0.0000
 40
0.1000
 41
0.1000
 70
0
  0
VERTEX
  8
0
 10
-0.4500
 20
-0.2379
 30
0.0000
  0
VERTEX
  8
0
 10
-0.4500
 20
0.2379
 30
0.0000
  0
SEQEND
  8
0
  0
POLYLINE
  8
0
 66
1
 10
0.0000
 20
0.0000
 30
0.0000
 40
0.0500
 41
0.0500
 70
0
  0
VERTEX
  8
0
 10
-0.4250
 20
0.2379
 30
0.0000
 42
1.0000
  0
VERTEX
  8
0
 10
-0.4750
 20
0.2379
 30
0.0000
  0
SEQEND
  8
0
  0
POLYLINE
  8
0
 66
1
 10
0.0000
 20
0.0000
 30
0.0000
 40
0.0500
 41
0.0500
 70
0
  0
VERTEX
  8
0
 10
-0.4750
 20
-0.2379
 30
0.0000
 42
1.0000
  0
VERTEX
  8
0
 10
-0.4250
 20
-0.2379
 30
0.0000
  0
SEQEND
  8
0
  0
ENDBLK
  8
0
  0
BLOCK
  8
0
  2
OCTAGONV
 70
64
 10
0.0000
 20
0.0000
 30
0.0000
  3
OCTAGONV
  0
POLYLINE
  8
0
 66
1
 10
0.0000
 20
0.0000
 30
0.0000
 40
0.5000
 41
0.5000
 70
0
  0
VERTEX
  8
0
 10
-0.2500
 20
-0.1036
 30
0.0000
  0
VERTEX
  8
0
 10
-0.2500
 20
0.1036
 30
0.0000
  0
VERTEX
  8
0
 10
-0.1036
 20
0.2500
 30
0.0000
  0
VERTEX
  8
0
 10
0.1036
 20
0.2500
 30
0.0000
  0
VERTEX
  8
0
 10
0.2500
 20
0.1036
 30
0.0000
  0
VERTEX
  8
0
 10
0.2500
 20
-0.1036
 30
0.0000
  0
VERTEX
  8
0
 10
0.1036
 20
-0.2500
 30
0.0000
  0
VERTEX
  8
0
 10
-0.1036
 20
-0.2500
 30
0.0000
  0
VERTEX
  8
0
 10
-0.2500
 20
-0.1036
 30
0.0000
  0
VERTEX
  8
0
 10
-0.2500
 20
0.1036
 30
0.0000
  0
SEQEND
  8
0
  0
ENDBLK
  8
0
  0
BLOCK
  8
0
  2
SQUAREV
 70
64
 10
0.0000
 20
0.0000
 30
0.0000
  3
SQUAREV
  0
SOLID
  8
0
 10
-0.5000
 20
-0.5000
 30
0.0000
 11
0.5000
 21
-0.5000
 31
0.0000
 12
-0.5000
 22
0.5000
 32
0.0000
 13
0.5000
 23
0.5000
 33
0.0000
  0
ENDBLK
  8
0
  0
BLOCK
  8
0
  2
ROUNDV
 70
64
 10
0.0000
 20
0.0000
 30
0.0000
  3
ROUNDV
  0
POLYLINE
  8
0
 66
1
 10
0.0000
 20
0.0000
 30
0.0000
 40
0.5000
 41
0.5000
 70
0
  0
VERTEX
  8
0
 10
0.0000
 20
-0.2500
 30
0.0000
 42
1.0000
  0
VERTEX
  8
0
 10
0.0000
 20
0.2500
 30
0.0000
 42
1.0000
  0
VERTEX
  8
0
 10
0.0000
 20
-0.2500
 30
0.0000
  0
SEQEND
  8
0
  0
ENDBLK
  8
0
  0
BLOCK
  8
0
  2
ANNULUSV
 70
64
 10
0.0000
 20
0.0000
 30
0.0000
  3
ANNULUSV
  0
POLYLINE
  8
0
 66
1
 10
0.0000
 20
0.0000
 30
0.0000
 40
0.5000
 41
0.5000
 70
0
  0
VERTEX
  8
0
 10
0.0000
 20
-0.2500
 30
0.0000
 42
1.0000
  0
VERTEX
  8
0
 10
0.0000
 20
0.2500
 30
0.0000
 42
1.0000
  0
VERTEX
  8
0
 10
0.0000
 20
-0.2500
 30
0.0000
  0
SEQEND
  8
0
  0
ENDBLK
  8
0
  0
BLOCK
  8
0
  2
THERMALV
 70
64
 10
0.0000
 20
0.0000
 30
0.0000
  3
THERMALV
  0
POLYLINE
  8
0
 66
1
 10
0.0000
 20
0.0000
 30
0.0000
 40
0.1000
 41
0.1000
 70
0
  0
VERTEX
  8
0
 10
-0.2379
 20
0.4500
 30
0.0000
  0
VERTEX
  8
0
 10
0.2379
 20
0.4500
 30
0.0000
  0
SEQEND
  8
0
  0
POLYLINE
  8
0
 66
1
 10
0.0000
 20
0.0000
 30
0.0000
 40
0.0500
 41
0.0500
 70
0
  0
VERTEX
  8
0
 10
0.2379
 20
0.4250
 30
0.0000
 42
1.0000
  0
VERTEX
  8
0
 10
0.2379
 20
0.4750
 30
0.0000
  0
SEQEND
  8
0
  0
POLYLINE
  8
0
 66
1
 10
0.0000
 20
0.0000
 30
0.0000
 40
0.0500
 41
0.0500
 70
0
  0
VERTEX
  8
0
 10
-0.2379
 20
0.4750
 30
0.0000
 42
1.0000
  0
VERTEX
  8
0
 10
-0.2379
 20
0.4250
 30
0.0000
  0
SEQEND
  8
0
  0
POLYLINE
  8
0
 66
1
 10
0.0000
 20
0.0000
 30
0.0000
 40
0.1000
 41
0.1000
 70
0
  0
VERTEX
  8
0
 10
0.4500
 20
0.2379
 30
0.0000
  0
VERTEX
  8
0
 10
0.4500
 20
-0.2379
 30
0.0000
  0
SEQEND
  8
0
  0
POLYLINE
  8
0
 66
1
 10
0.0000
 20
0.0000
 30
0.0000
 40
0.0500
 41
0.0500
 70
0
  0
VERTEX
  8
0
 10
0.4250
 20
-0.2379
 30
0.0000
 42
1.0000
  0
VERTEX
  8
0
 10
0.4750
 20
-0.2379
 30
0.0000
  0
SEQEND
  8
0
  0
POLYLINE
  8
0
 66
1
 10
0.0000
 20
0.0000
 30
0.0000
 40
0.0500
 41
0.0500
 70
0
  0
VERTEX
  8
0
 10
0.4750
 20
0.2379
 30
0.0000
 42
1.0000
  0
VERTEX
  8
0
 10
0.4250
 20
0.2379
 30
0.0000
  0
SEQEND
  8
0
  0
POLYLINE
  8
0
 66
1
 10
0.0000
 20
0.0000
 30
0.0000
 40
0.1000
 41
0.1000
 70
0
  0
VERTEX
  8
0
 10
0.2379
 20
-0.4500
 30
0.0000
  0
VERTEX
  8
0
 10
-0.2379
 20
-0.4500
 30
0.0000
  0
SEQEND
  8
0
  0
POLYLINE
  8
0
 66
1
 10
0.0000
 20
0.0000
 30
0.0000
 40
0.0500
 41
0.0500
 70
0
  0
VERTEX
  8
0
 10
-0.2379
 20
-0.4250
 30
0.0000
 42
1.0000
  0
VERTEX
  8
0
 10
-0.2379
 20
-0.4750
 30
0.0000
  0
SEQEND
  8
0
  0
POLYLINE
  8
0
 66
1
 10
0.0000
 20
0.0000
 30
0.0000
 40
0.0500
 41
0.0500
 70
0
  0
VERTEX
  8
0
 10
0.2379
 20
-0.4750
 30
0.0000
 42
1.0000
  0
VERTEX
  8
0
 10
0.2379
 20
-0.4250
 30
0.0000
  0
SEQEND
  8
0
  0
POLYLINE
  8
0
 66
1
 10
0.0000
 20
0.0000
 30
0.0000
 40
0.1000
 41
0.1000
 70
0
  0
VERTEX
  8
0
 10
-0.4500
 20
-0.2379
 30
0.0000
  0
VERTEX
  8
0
 10
-0.4500
 20
0.2379
 30
0.0000
  0
SEQEND
  8
0
  0
POLYLINE
  8
0
 66
1
 10
0.0000
 20
0.0000
 30
0.0000
 40
0.0500
 41
0.0500
 70
0
  0
VERTEX
  8
0
 10
-0.4250
 20
0.2379
 30
0.0000
 42
1.0000
  0
VERTEX
  8
0
 10
-0.4750
 20
0.2379
 30
0.0000
  0
SEQEND
  8
0
  0
POLYLINE
  8
0
 66
1
 10
0.0000
 20
0.0000
 30
0.0000
 40
0.0500
 41
0.0500
 70
0
  0
VERTEX
  8
0
 10
-0.4750
 20
-0.2379
 30
0.0000
 42
1.0000
  0
VERTEX
  8
0
 10
-0.4250
 20
-0.2379
 30
0.0000
  0
SEQEND
  8
0
  0
ENDBLK
  8
0
  0
BLOCK
  8
0
  2
LONGP100
 70
64
 10
0.0000
 20
0.0000
 30
0.0000
  3
LONGP100
  0
POLYLINE
  8
0
 66
1
 10
0.0000
 20
0.0000
 30
0.0000
 40
1.0000
 41
1.0000
 70
0
  0
VERTEX
  8
0
 10
-0.5000
 20
0.0000
 30
0.0000
  0
VERTEX
  8
0
 10
0.5000
 20
0.0000
 30
0.0000
  0
SEQEND
  8
0
  0
POLYLINE
  8
0
 66
1
 10
0.0000
 20
0.0000
 30
0.0000
 40
0.5000
 41
0.5000
 70
0
  0
VERTEX
  8
0
 10
0.5000
 20
-0.2500
 30
0.0000
 42
1.0000
  0
VERTEX
  8
0
 10
0.5000
 20
0.2500
 30
0.0000
  0
SEQEND
  8
0
  0
POLYLINE
  8
0
 66
1
 10
0.0000
 20
0.0000
 30
0.0000
 40
0.5000
 41
0.5000
 70
0
  0
VERTEX
  8
0
 10
-0.5000
 20
0.2500
 30
0.0000
 42
1.0000
  0
VERTEX
  8
0
 10
-0.5000
 20
-0.2500
 30
0.0000
  0
SEQEND
  8
0
  0
ENDBLK
  8
0
  0
ENDSEC
  0
SECTION
  2
ENTITIES
  0
ARC
  8
20
 10
-2.0000
 20
9.0000
 30
0.0000
 40
3.0000
 50
90.0000
 51
180.0000
  0
LINE
  8
20
 10
-2.0000
 20
12.0000
 30
0.0000
 11
37.0000
 21
12.0000
 31
0.0000
  0
ARC
  8
20
 10
37.0000
 20
9.0000
 30
0.0000
 40
3.0000
 50
0.0000
 51
90.0000
  0
LINE
  8
20
 10
40.0000
 20
9.0000
 30
0.0000
 11
40.0000
 21
-9.0000
 31
0.0000
  0
ARC
  8
20
 10
37.0000
 20
-9.0000
 30
0.0000
 40
3.0000
 50
270.0000
 51
0.0000
  0
LINE
  8
20
 10
37.0000
 20
-12.0000
 30
0.0000
 11
-2.0000
 21
-12.0000
 31
0.0000
  0
ARC
  8
20
 10
-2.0000
 20
-9.0000
 30
0.0000
 40
3.0000
 50
180.0000
 51
270.0000
  0
LINE
  8
20
 10
-5.0000
 20
-9.0000
 30
0.0000
 11
-5.0000
 21
9.0000
 31
0.0000
  0
POLYLINE
  8
51
 66
1
 10
0.0000
 20
0.0000
 30
0.0000
 40
0.1524
 41
0.1524
 70
0
  0
VERTEX
  8
51
 10
-3.4997
 20
-13.9238
 30
0.0000
  0
VERTEX
  8
51
 10
-3.4997
 20
-13.0755
 30
0.0000
  0
SEQEND
  8
0
  0
POLYLINE
  8
51
 66
1
 10
0.0000
 20
0.0000
 30
0.0000
 40
0.0762
 41
0.0762
 70
0
  0
VERTEX
  8
51
 10
-3.4616
 20
-13.0755
 30
0.0000
 42
1.0000
  0
VERTEX
  8
51
 10
-3.5378
 20
-13.0755
 30
0.0000
  0
SEQEND
  8
0
  0
POLYLINE
  8
51
 66
1
 10
0.0000
 20
0.0000
 30
0.0000
 40
0.0762
 41
0.0762
 70
0
  0
VERTEX
  8
51
 10
-3.5378
 20
-13.9238
 30
0.0000
 42
1.0000
  0
VERTEX
  8
51
 10
-3.4616
 20
-13.9238
 30
0.0000
  0
SEQEND
  8
0
  0
POLYLINE
  8
51
 66
1
 10
0.0000
 20
0.0000
 30
0.0000
 40
0.1524
 41
0.1524
 70
0
  0
VERTEX
  8
51
 10
-3.4997
 20
-13.0755
 30
0.0000
  0
VERTEX
  8
51
 10
-3.9238
 20
-13.4997
 30
0.0000
  0
SEQEND
  8
0
  0
POLYLINE
  8
51
 66
1
 10
0.0000
 20
0.0000
 30
0.0000
 40
0.0762
 41
0.0762
 70
0
  0
VERTEX
  8
51
 10
-3.9507
 20
-13.4728
 30
0.0000
 42
1.0000
  0
VERTEX
  8
51
 10
-3.8969
 20
-13.5266
 30
0.0000
  0
SEQEND
  8
0
  0
POLYLINE
  8
51
 66
1
 10
0.0000
 20
0.0000
 30
0.0000
 40
0.0762
 41
0.0762
 70
0
  0
VERTEX
  8
51
 10
-3.4728
 20
-13.1024
 30
0.0000
 42
1.0000
  0
VERTEX
  8
51
 10
-3.5266
 20
-13.0486
 30
0.0000
  0
SEQEND
  8
0
  0
POLYLINE
  8
51
 66
1
 10
0.0000
 20
0.0000
 30
0.0000
 40
0.1524
 41
0.1524
 70
0
  0
VERTEX
  8
51
 10
-3.9238
 20
-13.4997
 30
0.0000
  0
VERTEX
  8
51
 10
-3.3583
 20
-13.4997
 30
0.0000
  0
SEQEND
  8
0
  0
POLYLINE
  8
51
 66
1
 10
0.0000
 20
0.0000
 30
0.0000
 40
0.0762
 41
0.0762
 70
0
  0
VERTEX
  8
51
 10
-3.3583
 20
-13.5378
 30
0.0000
 42
1.0000
  0
VERTEX
  8
51
 10
-3.3583
 20
-13.4616
 30
0.0000
  0
SEQEND
  8
0
  0
POLYLINE
  8
51
 66
1
 10
0.0000
 20
0.0000
 30
0.0000
 40
0.0762
 41
0.0762
 70
0
  0
VERTEX
  8
51
 10
-3.9238
 20
-13.4616
 30
0.0000
 42
1.0000
  0
VERTEX
  8
51
 10
-3.9238
 20
-13.5378
 30
0.0000
  0
SEQEND
  8
0
  0
POLYLINE
  8
51
 66
1
 10
0.0000
 20
0.0000
 30
0.0000
 40
0.1524
 41
0.1524
 70
0
  0
VERTEX
  8
51
 10
-2.4376
 20
-13.0755
 30
0.0000
  0
VERTEX
  8
51
 10
-3.0031
 20
-13.0755
 30
0.0000
  0
SEQEND
  8
0
  0
POLYLINE
  8
51
 66
1
 10
0.0000
 20
0.0000
 30
0.0000
 40
0.0762
 41
0.0762
 70
0
  0
VERTEX
  8
51
 10
-3.0031
 20
-13.0374
 30
0.0000
 42
1.0000
  0
VERTEX
  8
51
 10
-3.0031
 20
-13.1136
 30
0.0000
  0
SEQEND
  8
0
  0
POLYLINE
  8
51
 66
1
 10
0.0000
 20
0.0000
 30
0.0000
 40
0.0762
 41
0.0762
 70
0
  0
VERTEX
  8
51
 10
-2.4376
 20
-13.1136
 30
0.0000
 42
1.0000
  0
VERTEX
  8
51
 10
-2.4376
 20
-13.0374
 30
0.0000
  0
SEQEND
  8
0
  0
POLYLINE
  8
51
 66
1
 10
0.0000
 20
0.0000
 30
0.0000
 40
0.1524
 41
0.1524
 70
0
  0
VERTEX
  8
51
 10
-3.0031
 20
-13.0755
 30
0.0000
  0
VERTEX
  8
51
 10
-3.0031
 20
-13.4997
 30
0.0000
  0
SEQEND
  8
0
  0
POLYLINE
  8
51
 66
1
 10
0.0000
 20
0.0000
 30
0.0000
 40
0.0762
 41
0.0762
 70
0
  0
VERTEX
  8
51
 10
-3.0412
 20
-13.4997
 30
0.0000
 42
1.0000
  0
VERTEX
  8
51
 10
-2.9650
 20
-13.4997
 30
0.0000
  0
SEQEND
  8
0
  0
POLYLINE
  8
51
 66
1
 10
0.0000
 20
0.0000
 30
0.0000
 40
0.0762
 41
0.0762
 70
0
  0
VERTEX
  8
51
 10
-2.9650
 20
-13.0755
 30
0.0000
 42
1.0000
  0
VERTEX
  8
51
 10
-3.0412
 20
-13.0755
 30
0.0000
  0
SEQEND
  8
0
  0
POLYLINE
  8
51
 66
1
 10
0.0000
 20
0.0000
 30
0.0000
 40
0.1524
 41
0.1524
 70
0
  0
VERTEX
  8
51
 10
-3.0031
 20
-13.4997
 30
0.0000
  0
VERTEX
  8
51
 10
-2.7204
 20
-13.3583
 30
0.0000
  0
SEQEND
  8
0
  0
POLYLINE
  8
51
 66
1
 10
0.0000
 20
0.0000
 30
0.0000
 40
0.0762
 41
0.0762
 70
0
  0
VERTEX
  8
51
 10
-2.7034
 20
-13.3924
 30
0.0000
 42
1.0000
  0
VERTEX
  8
51
 10
-2.7374
 20
-13.3242
 30
0.0000
  0
SEQEND
  8
0
  0
POLYLINE
  8
51
 66
1
 10
0.0000
 20
0.0000
 30
0.0000
 40
0.0762
 41
0.0762
 70
0
  0
VERTEX
  8
51
 10
-3.0201
 20
-13.4656
 30
0.0000
 42
1.0000
  0
VERTEX
  8
51
 10
-2.9861
 20
-13.5338
 30
0.0000
  0
SEQEND
  8
0
  0
POLYLINE
  8
51
 66
1
 10
0.0000
 20
0.0000
 30
0.0000
 40
0.1524
 41
0.1524
 70
0
  0
VERTEX
  8
51
 10
-2.7204
 20
-13.3583
 30
0.0000
  0
VERTEX
  8
51
 10
-2.5790
 20
-13.3583
 30
0.0000
  0
SEQEND
  8
0
  0
POLYLINE
  8
51
 66
1
 10
0.0000
 20
0.0000
 30
0.0000
 40
0.0762
 41
0.0762
 70
0
  0
VERTEX
  8
51
 10
-2.5790
 20
-13.3964
 30
0.0000
 42
1.0000
  0
VERTEX
  8
51
 10
-2.5790
 20
-13.3202
 30
0.0000
  0
SEQEND
  8
0
  0
POLYLINE
  8
51
 66
1
 10
0.0000
 20
0.0000
 30
0.0000
 40
0.0762
 41
0.0762
 70
0
  0
VERTEX
  8
51
 10
-2.7204
 20
-13.3202
 30
0.0000
 42
1.0000
  0
VERTEX
  8
51
 10
-2.7204
 20
-13.3964
 30
0.0000
  0
SEQEND
  8
0
  0
POLYLINE
  8
51
 66
1
 10
0.0000
 20
0.0000
 30
0.0000
 40
0.1524
 41
0.1524
 70
0
  0
VERTEX
  8
51
 10
-2.5790
 20
-13.3583
 30
0.0000
  0
VERTEX
  8
51
 10
-2.4376
 20
-13.4997
 30
0.0000
  0
SEQEND
  8
0
  0
POLYLINE
  8
51
 66
1
 10
0.0000
 20
0.0000
 30
0.0000
 40
0.0762
 41
0.0762
 70
0
  0
VERTEX
  8
51
 10
-2.4645
 20
-13.5266
 30
0.0000
 42
1.0000
  0
VERTEX
  8
51
 10
-2.4107
 20
-13.4728
 30
0.0000
  0
SEQEND
  8
0
  0
POLYLINE
  8
51
 66
1
 10
0.0000
 20
0.0000
 30
0.0000
 40
0.0762
 41
0.0762
 70
0
  0
VERTEX
  8
51
 10
-2.5521
 20
-13.3314
 30
0.0000
 42
1.0000
  0
VERTEX
  8
51
 10
-2.6059
 20
-13.3852
 30
0.0000
  0
SEQEND
  8
0
  0
POLYLINE
  8
51
 66
1
 10
0.0000
 20
0.0000
 30
0.0000
 40
0.1524
 41
0.1524
 70
0
  0
VERTEX
  8
51
 10
-2.4376
 20
-13.4997
 30
0.0000
  0
VERTEX
  8
51
 10
-2.4376
 20
-13.7825
 30
0.0000
  0
SEQEND
  8
0
  0
POLYLINE
  8
51
 66
1
 10
0.0000
 20
0.0000
 30
0.0000
 40
0.0762
 41
0.0762
 70
0
  0
VERTEX
  8
51
 10
-2.4757
 20
-13.7825
 30
0.0000
 42
1.0000
  0
VERTEX
  8
51
 10
-2.3995
 20
-13.7825
 30
0.0000
  0
SEQEND
  8
0
  0
POLYLINE
  8
51
 66
1
 10
0.0000
 20
0.0000
 30
0.0000
 40
0.0762
 41
0.0762
 70
0
  0
VERTEX
  8
51
 10
-2.3995
 20
-13.4997
 30
0.0000
 42
1.0000
  0
VERTEX
  8
51
 10
-2.4757
 20
-13.4997
 30
0.0000
  0
SEQEND
  8
0
  0
POLYLINE
  8
51
 66
1
 10
0.0000
 20
0.0000
 30
0.0000
 40
0.1524
 41
0.1524
 70
0
  0
VERTEX
  8
51
 10
-2.4376
 20
-13.7825
 30
0.0000
  0
VERTEX
  8
51
 10
-2.5790
 20
-13.9238
 30
0.0000
  0
SEQEND
  8
0
  0
POLYLINE
  8
51
 66
1
 10
0.0000
 20
0.0000
 30
0.0000
 40
0.0762
 41
0.0762
 70
0
  0
VERTEX
  8
51
 10
-2.6059
 20
-13.8968
 30
0.0000
 42
1.0000
  0
VERTEX
  8
51
 10
-2.5521
 20
-13.9508
 30
0.0000
  0
SEQEND
  8
0
  0
POLYLINE
  8
51
 66
1
 10
0.0000
 20
0.0000
 30
0.0000
 40
0.0762
 41
0.0762
 70
0
  0
VERTEX
  8
51
 10
-2.4107
 20
-13.8095
 30
0.0000
 42
1.0000
  0
VERTEX
  8
51
 10
-2.4645
 20
-13.7555
 30
0.0000
  0
SEQEND
  8
0
  0
POLYLINE
  8
51
 66
1
 10
0.0000
 20
0.0000
 30
0.0000
 40
0.1524
 41
0.1524
 70
0
  0
VERTEX
  8
51
 10
-2.5790
 20
-13.9238
 30
0.0000
  0
VERTEX
  8
51
 10
-2.8618
 20
-13.9238
 30
0.0000
  0
SEQEND
  8
0
  0
POLYLINE
  8
51
 66
1
 10
0.0000
 20
0.0000
 30
0.0000
 40
0.0762
 41
0.0762
 70
0
  0
VERTEX
  8
51
 10
-2.8618
 20
-13.8857
 30
0.0000
 42
1.0000
  0
VERTEX
  8
51
 10
-2.8618
 20
-13.9619
 30
0.0000
  0
SEQEND
  8
0
  0
POLYLINE
  8
51
 66
1
 10
0.0000
 20
0.0000
 30
0.0000
 40
0.0762
 41
0.0762
 70
0
  0
VERTEX
  8
51
 10
-2.5790
 20
-13.9619
 30
0.0000
 42
1.0000
  0
VERTEX
  8
51
 10
-2.5790
 20
-13.8857
 30
0.0000
  0
SEQEND
  8
0
  0
POLYLINE
  8
51
 66
1
 10
0.0000
 20
0.0000
 30
0.0000
 40
0.1524
 41
0.1524
 70
0
  0
VERTEX
  8
51
 10
-2.8618
 20
-13.9238
 30
0.0000
  0
VERTEX
  8
51
 10
-3.0031
 20
-13.7825
 30
0.0000
  0
SEQEND
  8
0
  0
POLYLINE
  8
51
 66
1
 10
0.0000
 20
0.0000
 30
0.0000
 40
0.0762
 41
0.0762
 70
0
  0
VERTEX
  8
51
 10
-2.9762
 20
-13.7556
 30
0.0000
 42
1.0000
  0
VERTEX
  8
51
 10
-3.0300
 20
-13.8094
 30
0.0000
  0
SEQEND
  8
0
  0
POLYLINE
  8
51
 66
1
 10
0.0000
 20
0.0000
 30
0.0000
 40
0.0762
 41
0.0762
 70
0
  0
VERTEX
  8
51
 10
-2.8887
 20
-13.9507
 30
0.0000
 42
1.0000
  0
VERTEX
  8
51
 10
-2.8349
 20
-13.8969
 30
0.0000
  0
SEQEND
  8
0
  0
POLYLINE
  8
51
 66
1
 10
0.0000
 20
0.0000
 30
0.0000
 40
0.1524
 41
0.1524
 70
0
  0
VERTEX
  8
51
 10
-2.0824
 20
-13.3583
 30
0.0000
  0
VERTEX
  8
51
 10
-1.5169
 20
-13.9238
 30
0.0000
  0
SEQEND
  8
0
  0
POLYLINE
  8
51
 66
1
 10
0.0000
 20
0.0000
 30
0.0000
 40
0.0762
 41
0.0762
 70
0
  0
VERTEX
  8
51
 10
-1.5438
 20
-13.9507
 30
0.0000
 42
1.0000
  0
VERTEX
  8
51
 10
-1.4900
 20
-13.8969
 30
0.0000
  0
SEQEND
  8
0
  0
POLYLINE
  8
51
 66
1
 10
0.0000
 20
0.0000
 30
0.0000
 40
0.0762
 41
0.0762
 70
0
  0
VERTEX
  8
51
 10
-2.0555
 20
-13.3314
 30
0.0000
 42
1.0000
  0
VERTEX
  8
51
 10
-2.1093
 20
-13.3852
 30
0.0000
  0
SEQEND
  8
0
  0
POLYLINE
  8
51
 66
1
 10
0.0000
 20
0.0000
 30
0.0000
 40
0.1524
 41
0.1524
 70
0
  0
VERTEX
  8
51
 10
-2.0824
 20
-13.9238
 30
0.0000
  0
VERTEX
  8
51
 10
-1.5169
 20
-13.3583
 30
0.0000
  0
SEQEND
  8
0
  0
POLYLINE
  8
51
 66
1
 10
0.0000
 20
0.0000
 30
0.0000
 40
0.0762
 41
0.0762
 70
0
  0
VERTEX
  8
51
 10
-1.4900
 20
-13.3852
 30
0.0000
 42
1.0000
  0
VERTEX
  8
51
 10
-1.5438
 20
-13.3314
 30
0.0000
  0
SEQEND
  8
0
  0
POLYLINE
  8
51
 66
1
 10
0.0000
 20
0.0000
 30
0.0000
 40
0.0762
 41
0.0762
 70
0
  0
VERTEX
  8
51
 10
-2.1093
 20
-13.8969
 30
0.0000
 42
1.0000
  0
VERTEX
  8
51
 10
-2.0555
 20
-13.9507
 30
0.0000
  0
SEQEND
  8
0
  0
POLYLINE
  8
51
 66
1
 10
0.0000
 20
0.0000
 30
0.0000
 40
0.1524
 41
0.1524
 70
0
  0
VERTEX
  8
51
 10
-0.5962
 20
-13.9238
 30
0.0000
  0
VERTEX
  8
51
 10
-1.1617
 20
-13.9238
 30
0.0000
  0
SEQEND
  8
0
  0
POLYLINE
  8
51
 66
1
 10
0.0000
 20
0.0000
 30
0.0000
 40
0.0762
 41
0.0762
 70
0
  0
VERTEX
  8
51
 10
-1.1617
 20
-13.8857
 30
0.0000
 42
1.0000
  0
VERTEX
  8
51
 10
-1.1617
 20
-13.9619
 30
0.0000
  0
SEQEND
  8
0
  0
POLYLINE
  8
51
 66
1
 10
0.0000
 20
0.0000
 30
0.0000
 40
0.0762
 41
0.0762
 70
0
  0
VERTEX
  8
51
 10
-0.5962
 20
-13.9619
 30
0.0000
 42
1.0000
  0
VERTEX
  8
51
 10
-0.5962
 20
-13.8857
 30
0.0000
  0
SEQEND
  8
0
  0
POLYLINE
  8
51
 66
1
 10
0.0000
 20
0.0000
 30
0.0000
 40
0.1524
 41
0.1524
 70
0
  0
VERTEX
  8
51
 10
-1.1617
 20
-13.9238
 30
0.0000
  0
VERTEX
  8
51
 10
-0.5962
 20
-13.3583
 30
0.0000
  0
SEQEND
  8
0
  0
POLYLINE
  8
51
 66
1
 10
0.0000
 20
0.0000
 30
0.0000
 40
0.0762
 41
0.0762
 70
0
  0
VERTEX
  8
51
 10
-0.5693
 20
-13.3852
 30
0.0000
 42
1.0000
  0
VERTEX
  8
51
 10
-0.6231
 20
-13.3314
 30
0.0000
  0
SEQEND
  8
0
  0
POLYLINE
  8
51
 66
1
 10
0.0000
 20
0.0000
 30
0.0000
 40
0.0762
 41
0.0762
 70
0
  0
VERTEX
  8
51
 10
-1.1886
 20
-13.8969
 30
0.0000
 42
1.0000
  0
VERTEX
  8
51
 10
-1.1348
 20
-13.9507
 30
0.0000
  0
SEQEND
  8
0
  0
POLYLINE
  8
51
 66
1
 10
0.0000
 20
0.0000
 30
0.0000
 40
0.1524
 41
0.1524
 70
0
  0
VERTEX
  8
51
 10
-0.5962
 20
-13.3583
 30
0.0000
  0
VERTEX
  8
51
 10
-0.5962
 20
-13.2169
 30
0.0000
  0
SEQEND
  8
0
  0
POLYLINE
  8
51
 66
1
 10
0.0000
 20
0.0000
 30
0.0000
 40
0.0762
 41
0.0762
 70
0
  0
VERTEX
  8
51
 10
-0.5581
 20
-13.2169
 30
0.0000
 42
1.0000
  0
VERTEX
  8
51
 10
-0.6343
 20
-13.2169
 30
0.0000
  0
SEQEND
  8
0
  0
POLYLINE
  8
51
 66
1
 10
0.0000
 20
0.0000
 30
0.0000
 40
0.0762
 41
0.0762
 70
0
  0
VERTEX
  8
51
 10
-0.6343
 20
-13.3583
 30
0.0000
 42
1.0000
  0
VERTEX
  8
51
 10
-0.5581
 20
-13.3583
 30
0.0000
  0
SEQEND
  8
0
  0
POLYLINE
  8
51
 66
1
 10
0.0000
 20
0.0000
 30
0.0000
 40
0.1524
 41
0.1524
 70
0
  0
VERTEX
  8
51
 10
-0.5962
 20
-13.2169
 30
0.0000
  0
VERTEX
  8
51
 10
-0.7376
 20
-13.0755
 30
0.0000
  0
SEQEND
  8
0
  0
POLYLINE
  8
51
 66
1
 10
0.0000
 20
0.0000
 30
0.0000
 40
0.0762
 41
0.0762
 70
0
  0
VERTEX
  8
51
 10
-0.7107
 20
-13.0486
 30
0.0000
 42
1.0000
  0
VERTEX
  8
51
 10
-0.7645
 20
-13.1024
 30
0.0000
  0
SEQEND
  8
0
  0
POLYLINE
  8
51
 66
1
 10
0.0000
 20
0.0000
 30
0.0000
 40
0.0762
 41
0.0762
 70
0
  0
VERTEX
  8
51
 10
-0.6231
 20
-13.2438
 30
0.0000
 42
1.0000
  0
VERTEX
  8
51
 10
-0.5693
 20
-13.1900
 30
0.0000
  0
SEQEND
  8
0
  0
POLYLINE
  8
51
 66
1
 10
0.0000
 20
0.0000
 30
0.0000
 40
0.1524
 41
0.1524
 70
0
  0
VERTEX
  8
51
 10
-0.7376
 20
-13.0755
 30
0.0000
  0
VERTEX
  8
51
 10
-1.0204
 20
-13.0755
 30
0.0000
  0
SEQEND
  8
0
  0
POLYLINE
  8
51
 66
1
 10
0.0000
 20
0.0000
 30
0.0000
 40
0.0762
 41
0.0762
 70
0
  0
VERTEX
  8
51
 10
-1.0204
 20
-13.0374
 30
0.0000
 42
1.0000
  0
VERTEX
  8
51
 10
-1.0204
 20
-13.1136
 30
0.0000
  0
SEQEND
  8
0
  0
POLYLINE
  8
51
 66
1
 10
0.0000
 20
0.0000
 30
0.0000
 40
0.0762
 41
0.0762
 70
0
  0
VERTEX
  8
51
 10
-0.7376
 20
-13.1136
 30
0.0000
 42
1.0000
  0
VERTEX
  8
51
 10
-0.7376
 20
-13.0374
 30
0.0000
  0
SEQEND
  8
0
  0
POLYLINE
  8
51
 66
1
 10
0.0000
 20
0.0000
 30
0.0000
 40
0.1524
 41
0.1524
 70
0
  0
VERTEX
  8
51
 10
-1.0204
 20
-13.0755
 30
0.0000
  0
VERTEX
  8
51
 10
-1.1617
 20
-13.2169
 30
0.0000
  0
SEQEND
  8
0
  0
POLYLINE
  8
51
 66
1
 10
0.0000
 20
0.0000
 30
0.0000
 40
0.0762
 41
0.0762
 70
0
  0
VERTEX
  8
51
 10
-1.1887
 20
-13.1900
 30
0.0000
 42
1.0000
  0
VERTEX
  8
51
 10
-1.1347
 20
-13.2438
 30
0.0000
  0
SEQEND
  8
0
  0
POLYLINE
  8
51
 66
1
 10
0.0000
 20
0.0000
 30
0.0000
 40
0.0762
 41
0.0762
 70
0
  0
VERTEX
  8
51
 10
-0.9934
 20
-13.1024
 30
0.0000
 42
1.0000
  0
VERTEX
  8
51
 10
-1.0474
 20
-13.0486
 30
0.0000
  0
SEQEND
  8
0
  0
POLYLINE
  8
51
 66
1
 10
0.0000
 20
0.0000
 30
0.0000
 40
0.1524
 41
0.1524
 70
0
  0
VERTEX
  8
51
 10
0.1831
 20
-13.9238
 30
0.0000
  0
VERTEX
  8
51
 10
0.1831
 20
-13.0755
 30
0.0000
  0
SEQEND
  8
0
  0
POLYLINE
  8
51
 66
1
 10
0.0000
 20
0.0000
 30
0.0000
 40
0.0762
 41
0.0762
 70
0
  0
VERTEX
  8
51
 10
0.2212
 20
-13.0755
 30
0.0000
 42
1.0000
  0
VERTEX
  8
51
 10
0.1450
 20
-13.0755
 30
0.0000
  0
SEQEND
  8
0
  0
POLYLINE
  8
51
 66
1
 10
0.0000
 20
0.0000
 30
0.0000
 40
0.0762
 41
0.0762
 70
0
  0
VERTEX
  8
51
 10
0.1450
 20
-13.9238
 30
0.0000
 42
1.0000
  0
VERTEX
  8
51
 10
0.2212
 20
-13.9238
 30
0.0000
  0
SEQEND
  8
0
  0
POLYLINE
  8
51
 66
1
 10
0.0000
 20
0.0000
 30
0.0000
 40
0.1524
 41
0.1524
 70
0
  0
VERTEX
  8
51
 10
0.1831
 20
-13.0755
 30
0.0000
  0
VERTEX
  8
51
 10
-0.2410
 20
-13.4997
 30
0.0000
  0
SEQEND
  8
0
  0
POLYLINE
  8
51
 66
1
 10
0.0000
 20
0.0000
 30
0.0000
 40
0.0762
 41
0.0762
 70
0
  0
VERTEX
  8
51
 10
-0.2679
 20
-13.4728
 30
0.0000
 42
1.0000
  0
VERTEX
  8
51
 10
-0.2141
 20
-13.5266
 30
0.0000
  0
SEQEND
  8
0
  0
POLYLINE
  8
51
 66
1
 10
0.0000
 20
0.0000
 30
0.0000
 40
0.0762
 41
0.0762
 70
0
  0
VERTEX
  8
51
 10
0.2100
 20
-13.1024
 30
0.0000
 42
1.0000
  0
VERTEX
  8
51
 10
0.1562
 20
-13.0486
 30
0.0000
  0
SEQEND
  8
0
  0
POLYLINE
  8
51
 66
1
 10
0.0000
 20
0.0000
 30
0.0000
 40
0.1524
 41
0.1524
 70
0
  0
VERTEX
  8
51
 10
-0.2410
 20
-13.4997
 30
0.0000
  0
VERTEX
  8
51
 10
0.3245
 20
-13.4997
 30
0.0000
  0
SEQEND
  8
0
  0
POLYLINE
  8
51
 66
1
 10
0.0000
 20
0.0000
 30
0.0000
 40
0.0762
 41
0.0762
 70
0
  0
VERTEX
  8
51
 10
0.3245
 20
-13.5378
 30
0.0000
 42
1.0000
  0
VERTEX
  8
51
 10
0.3245
 20
-13.4616
 30
0.0000
  0
SEQEND
  8
0
  0
POLYLINE
  8
51
 66
1
 10
0.0000
 20
0.0000
 30
0.0000
 40
0.0762
 41
0.0762
 70
0
  0
VERTEX
  8
51
 10
-0.2410
 20
-13.4616
 30
0.0000
 42
1.0000
  0
VERTEX
  8
51
 10
-0.2410
 20
-13.5378
 30
0.0000
  0
SEQEND
  8
0
  0
POLYLINE
  8
51
 66
1
 10
0.0000
 20
0.0000
 30
0.0000
 40
0.1524
 41
0.1524
 70
0
  0
VERTEX
  8
51
 10
1.6004
 20
-13.9238
 30
0.0000
  0
VERTEX
  8
51
 10
1.6004
 20
-13.3583
 30
0.0000
  0
SEQEND
  8
0
  0
POLYLINE
  8
51
 66
1
 10
0.0000
 20
0.0000
 30
0.0000
 40
0.0762
 41
0.0762
 70
0
  0
VERTEX
  8
51
 10
1.6385
 20
-13.3583
 30
0.0000
 42
1.0000
  0
VERTEX
  8
51
 10
1.5623
 20
-13.3583
 30
0.0000
  0
SEQEND
  8
0
  0
POLYLINE
  8
51
 66
1
 10
0.0000
 20
0.0000
 30
0.0000
 40
0.0762
 41
0.0762
 70
0
  0
VERTEX
  8
51
 10
1.5623
 20
-13.9238
 30
0.0000
 42
1.0000
  0
VERTEX
  8
51
 10
1.6385
 20
-13.9238
 30
0.0000
  0
SEQEND
  8
0
  0
POLYLINE
  8
51
 66
1
 10
0.0000
 20
0.0000
 30
0.0000
 40
0.1524
 41
0.1524
 70
0
  0
VERTEX
  8
51
 10
1.6004
 20
-13.3583
 30
0.0000
  0
VERTEX
  8
51
 10
1.7417
 20
-13.3583
 30
0.0000
  0
SEQEND
  8
0
  0
POLYLINE
  8
51
 66
1
 10
0.0000
 20
0.0000
 30
0.0000
 40
0.0762
 41
0.0762
 70
0
  0
VERTEX
  8
51
 10
1.7417
 20
-13.3964
 30
0.0000
 42
1.0000
  0
VERTEX
  8
51
 10
1.7417
 20
-13.3202
 30
0.0000
  0
SEQEND
  8
0
  0
POLYLINE
  8
51
 66
1
 10
0.0000
 20
0.0000
 30
0.0000
 40
0.0762
 41
0.0762
 70
0
  0
VERTEX
  8
51
 10
1.6004
 20
-13.3202
 30
0.0000
 42
1.0000
  0
VERTEX
  8
51
 10
1.6004
 20
-13.3964
 30
0.0000
  0
SEQEND
  8
0
  0
POLYLINE
  8
51
 66
1
 10
0.0000
 20
0.0000
 30
0.0000
 40
0.1524
 41
0.1524
 70
0
  0
VERTEX
  8
51
 10
1.7417
 20
-13.3583
 30
0.0000
  0
VERTEX
  8
51
 10
1.8831
 20
-13.4997
 30
0.0000
  0
SEQEND
  8
0
  0
POLYLINE
  8
51
 66
1
 10
0.0000
 20
0.0000
 30
0.0000
 40
0.0762
 41
0.0762
 70
0
  0
VERTEX
  8
51
 10
1.8562
 20
-13.5266
 30
0.0000
 42
1.0000
  0
VERTEX
  8
51
 10
1.9100
 20
-13.4728
 30
0.0000
  0
SEQEND
  8
0
  0
POLYLINE
  8
51
 66
1
 10
0.0000
 20
0.0000
 30
0.0000
 40
0.0762
 41
0.0762
 70
0
  0
VERTEX
  8
51
 10
1.7686
 20
-13.3314
 30
0.0000
 42
1.0000
  0
VERTEX
  8
51
 10
1.7148
 20
-13.3852
 30
0.0000
  0
SEQEND
  8
0
  0
POLYLINE
  8
51
 66
1
 10
0.0000
 20
0.0000
 30
0.0000
 40
0.1524
 41
0.1524
 70
0
  0
VERTEX
  8
51
 10
1.8831
 20
-13.4997
 30
0.0000
  0
VERTEX
  8
51
 10
1.8831
 20
-13.9238
 30
0.0000
  0
SEQEND
  8
0
  0
POLYLINE
  8
51
 66
1
 10
0.0000
 20
0.0000
 30
0.0000
 40
0.0762
 41
0.0762
 70
0
  0
VERTEX
  8
51
 10
1.8450
 20
-13.9238
 30
0.0000
 42
1.0000
  0
VERTEX
  8
51
 10
1.9212
 20
-13.9238
 30
0.0000
  0
SEQEND
  8
0
  0
POLYLINE
  8
51
 66
1
 10
0.0000
 20
0.0000
 30
0.0000
 40
0.0762
 41
0.0762
 70
0
  0
VERTEX
  8
51
 10
1.9212
 20
-13.4997
 30
0.0000
 42
1.0000
  0
VERTEX
  8
51
 10
1.8450
 20
-13.4997
 30
0.0000
  0
SEQEND
  8
0
  0
POLYLINE
  8
51
 66
1
 10
0.0000
 20
0.0000
 30
0.0000
 40
0.1524
 41
0.1524
 70
0
  0
VERTEX
  8
51
 10
1.8831
 20
-13.4997
 30
0.0000
  0
VERTEX
  8
51
 10
2.0245
 20
-13.3583
 30
0.0000
  0
SEQEND
  8
0
  0
POLYLINE
  8
51
 66
1
 10
0.0000
 20
0.0000
 30
0.0000
 40
0.0762
 41
0.0762
 70
0
  0
VERTEX
  8
51
 10
2.0514
 20
-13.3852
 30
0.0000
 42
1.0000
  0
VERTEX
  8
51
 10
1.9976
 20
-13.3314
 30
0.0000
  0
SEQEND
  8
0
  0
POLYLINE
  8
51
 66
1
 10
0.0000
 20
0.0000
 30
0.0000
 40
0.0762
 41
0.0762
 70
0
  0
VERTEX
  8
51
 10
1.8562
 20
-13.4728
 30
0.0000
 42
1.0000
  0
VERTEX
  8
51
 10
1.9100
 20
-13.5266
 30
0.0000
  0
SEQEND
  8
0
  0
POLYLINE
  8
51
 66
1
 10
0.0000
 20
0.0000
 30
0.0000
 40
0.1524
 41
0.1524
 70
0
  0
VERTEX
  8
51
 10
2.0245
 20
-13.3583
 30
0.0000
  0
VERTEX
  8
51
 10
2.1659
 20
-13.4997
 30
0.0000
  0
SEQEND
  8
0
  0
POLYLINE
  8
51
 66
1
 10
0.0000
 20
0.0000
 30
0.0000
 40
0.0762
 41
0.0762
 70
0
  0
VERTEX
  8
51
 10
2.1390
 20
-13.5266
 30
0.0000
 42
1.0000
  0
VERTEX
  8
51
 10
2.1928
 20
-13.4728
 30
0.0000
  0
SEQEND
  8
0
  0
POLYLINE
  8
51
 66
1
 10
0.0000
 20
0.0000
 30
0.0000
 40
0.0762
 41
0.0762
 70
0
  0
VERTEX
  8
51
 10
2.0514
 20
-13.3314
 30
0.0000
 42
1.0000
  0
VERTEX
  8
51
 10
1.9976
 20
-13.3852
 30
0.0000
  0
SEQEND
  8
0
  0
POLYLINE
  8
51
 66
1
 10
0.0000
 20
0.0000
 30
0.0000
 40
0.1524
 41
0.1524
 70
0
  0
VERTEX
  8
51
 10
2.1659
 20
-13.4997
 30
0.0000
  0
VERTEX
  8
51
 10
2.1659
 20
-13.9238
 30
0.0000
  0
SEQEND
  8
0
  0
POLYLINE
  8
51
 66
1
 10
0.0000
 20
0.0000
 30
0.0000
 40
0.0762
 41
0.0762
 70
0
  0
VERTEX
  8
51
 10
2.1278
 20
-13.9238
 30
0.0000
 42
1.0000
  0
VERTEX
  8
51
 10
2.2040
 20
-13.9238
 30
0.0000
  0
SEQEND
  8
0
  0
POLYLINE
  8
51
 66
1
 10
0.0000
 20
0.0000
 30
0.0000
 40
0.0762
 41
0.0762
 70
0
  0
VERTEX
  8
51
 10
2.2040
 20
-13.4997
 30
0.0000
 42
1.0000
  0
VERTEX
  8
51
 10
2.1278
 20
-13.4997
 30
0.0000
  0
SEQEND
  8
0
  0
POLYLINE
  8
51
 66
1
 10
0.0000
 20
0.0000
 30
0.0000
 40
0.1524
 41
0.1524
 70
0
  0
VERTEX
  8
51
 10
2.5211
 20
-13.9238
 30
0.0000
  0
VERTEX
  8
51
 10
2.5211
 20
-13.3583
 30
0.0000
  0
SEQEND
  8
0
  0
POLYLINE
  8
51
 66
1
 10
0.0000
 20
0.0000
 30
0.0000
 40
0.0762
 41
0.0762
 70
0
  0
VERTEX
  8
51
 10
2.5592
 20
-13.3583
 30
0.0000
 42
1.0000
  0
VERTEX
  8
51
 10
2.4830
 20
-13.3583
 30
0.0000
  0
SEQEND
  8
0
  0
POLYLINE
  8
51
 66
1
 10
0.0000
 20
0.0000
 30
0.0000
 40
0.0762
 41
0.0762
 70
0
  0
VERTEX
  8
51
 10
2.4830
 20
-13.9238
 30
0.0000
 42
1.0000
  0
VERTEX
  8
51
 10
2.5592
 20
-13.9238
 30
0.0000
  0
SEQEND
  8
0
  0
POLYLINE
  8
51
 66
1
 10
0.0000
 20
0.0000
 30
0.0000
 40
0.1524
 41
0.1524
 70
0
  0
VERTEX
  8
51
 10
2.5211
 20
-13.3583
 30
0.0000
  0
VERTEX
  8
51
 10
2.6624
 20
-13.3583
 30
0.0000
  0
SEQEND
  8
0
  0
POLYLINE
  8
51
 66
1
 10
0.0000
 20
0.0000
 30
0.0000
 40
0.0762
 41
0.0762
 70
0
  0
VERTEX
  8
51
 10
2.6624
 20
-13.3964
 30
0.0000
 42
1.0000
  0
VERTEX
  8
51
 10
2.6624
 20
-13.3202
 30
0.0000
  0
SEQEND
  8
0
  0
POLYLINE
  8
51
 66
1
 10
0.0000
 20
0.0000
 30
0.0000
 40
0.0762
 41
0.0762
 70
0
  0
VERTEX
  8
51
 10
2.5211
 20
-13.3202
 30
0.0000
 42
1.0000
  0
VERTEX
  8
51
 10
2.5211
 20
-13.3964
 30
0.0000
  0
SEQEND
  8
0
  0
POLYLINE
  8
51
 66
1
 10
0.0000
 20
0.0000
 30
0.0000
 40
0.1524
 41
0.1524
 70
0
  0
VERTEX
  8
51
 10
2.6624
 20
-13.3583
 30
0.0000
  0
VERTEX
  8
51
 10
2.8038
 20
-13.4997
 30
0.0000
  0
SEQEND
  8
0
  0
POLYLINE
  8
51
 66
1
 10
0.0000
 20
0.0000
 30
0.0000
 40
0.0762
 41
0.0762
 70
0
  0
VERTEX
  8
51
 10
2.7769
 20
-13.5266
 30
0.0000
 42
1.0000
  0
VERTEX
  8
51
 10
2.8307
 20
-13.4728
 30
0.0000
  0
SEQEND
  8
0
  0
POLYLINE
  8
51
 66
1
 10
0.0000
 20
0.0000
 30
0.0000
 40
0.0762
 41
0.0762
 70
0
  0
VERTEX
  8
51
 10
2.6893
 20
-13.3314
 30
0.0000
 42
1.0000
  0
VERTEX
  8
51
 10
2.6355
 20
-13.3852
 30
0.0000
  0
SEQEND
  8
0
  0
POLYLINE
  8
51
 66
1
 10
0.0000
 20
0.0000
 30
0.0000
 40
0.1524
 41
0.1524
 70
0
  0
VERTEX
  8
51
 10
2.8038
 20
-13.4997
 30
0.0000
  0
VERTEX
  8
51
 10
2.8038
 20
-13.9238
 30
0.0000
  0
SEQEND
  8
0
  0
POLYLINE
  8
51
 66
1
 10
0.0000
 20
0.0000
 30
0.0000
 40
0.0762
 41
0.0762
 70
0
  0
VERTEX
  8
51
 10
2.7657
 20
-13.9238
 30
0.0000
 42
1.0000
  0
VERTEX
  8
51
 10
2.8419
 20
-13.9238
 30
0.0000
  0
SEQEND
  8
0
  0
POLYLINE
  8
51
 66
1
 10
0.0000
 20
0.0000
 30
0.0000
 40
0.0762
 41
0.0762
 70
0
  0
VERTEX
  8
51
 10
2.8419
 20
-13.4997
 30
0.0000
 42
1.0000
  0
VERTEX
  8
51
 10
2.7657
 20
-13.4997
 30
0.0000
  0
SEQEND
  8
0
  0
POLYLINE
  8
51
 66
1
 10
0.0000
 20
0.0000
 30
0.0000
 40
0.1524
 41
0.1524
 70
0
  0
VERTEX
  8
51
 10
2.8038
 20
-13.4997
 30
0.0000
  0
VERTEX
  8
51
 10
2.9452
 20
-13.3583
 30
0.0000
  0
SEQEND
  8
0
  0
POLYLINE
  8
51
 66
1
 10
0.0000
 20
0.0000
 30
0.0000
 40
0.0762
 41
0.0762
 70
0
  0
VERTEX
  8
51
 10
2.9721
 20
-13.3852
 30
0.0000
 42
1.0000
  0
VERTEX
  8
51
 10
2.9183
 20
-13.3314
 30
0.0000
  0
SEQEND
  8
0
  0
POLYLINE
  8
51
 66
1
 10
0.0000
 20
0.0000
 30
0.0000
 40
0.0762
 41
0.0762
 70
0
  0
VERTEX
  8
51
 10
2.7769
 20
-13.4728
 30
0.0000
 42
1.0000
  0
VERTEX
  8
51
 10
2.8307
 20
-13.5266
 30
0.0000
  0
SEQEND
  8
0
  0
POLYLINE
  8
51
 66
1
 10
0.0000
 20
0.0000
 30
0.0000
 40
0.1524
 41
0.1524
 70
0
  0
VERTEX
  8
51
 10
2.9452
 20
-13.3583
 30
0.0000
  0
VERTEX
  8
51
 10
3.0866
 20
-13.4997
 30
0.0000
  0
SEQEND
  8
0
  0
POLYLINE
  8
51
 66
1
 10
0.0000
 20
0.0000
 30
0.0000
 40
0.0762
 41
0.0762
 70
0
  0
VERTEX
  8
51
 10
3.0597
 20
-13.5266
 30
0.0000
 42
1.0000
  0
VERTEX
  8
51
 10
3.1135
 20
-13.4728
 30
0.0000
  0
SEQEND
  8
0
  0
POLYLINE
  8
51
 66
1
 10
0.0000
 20
0.0000
 30
0.0000
 40
0.0762
 41
0.0762
 70
0
  0
VERTEX
  8
51
 10
2.9721
 20
-13.3314
 30
0.0000
 42
1.0000
  0
VERTEX
  8
51
 10
2.9183
 20
-13.3852
 30
0.0000
  0
SEQEND
  8
0
  0
POLYLINE
  8
51
 66
1
 10
0.0000
 20
0.0000
 30
0.0000
 40
0.1524
 41
0.1524
 70
0
  0
VERTEX
  8
51
 10
3.0866
 20
-13.4997
 30
0.0000
  0
VERTEX
  8
51
 10
3.0866
 20
-13.9238
 30
0.0000
  0
SEQEND
  8
0
  0
POLYLINE
  8
51
 66
1
 10
0.0000
 20
0.0000
 30
0.0000
 40
0.0762
 41
0.0762
 70
0
  0
VERTEX
  8
51
 10
3.0485
 20
-13.9238
 30
0.0000
 42
1.0000
  0
VERTEX
  8
51
 10
3.1247
 20
-13.9238
 30
0.0000
  0
SEQEND
  8
0
  0
POLYLINE
  8
51
 66
1
 10
0.0000
 20
0.0000
 30
0.0000
 40
0.0762
 41
0.0762
 70
0
  0
VERTEX
  8
51
 10
3.1247
 20
-13.4997
 30
0.0000
 42
1.0000
  0
VERTEX
  8
51
 10
3.0485
 20
-13.4997
 30
0.0000
  0
SEQEND
  8
0
  0
POLYLINE
  8
51
 66
1
 10
0.0000
 20
0.0000
 30
0.0000
 40
1.6000
 41
1.6000
 70
0
  0
VERTEX
  8
51
 10
-2.0000
 20
8.2000
 30
0.0000
 42
1.0000
  0
VERTEX
  8
51
 10
-2.0000
 20
9.8000
 30
0.0000
 42
1.0000
  0
VERTEX
  8
51
 10
-2.0000
 20
8.2000
 30
0.0000
  0
SEQEND
  8
0
  0
POLYLINE
  8
51
 66
1
 10
0.0000
 20
0.0000
 30
0.0000
 40
1.6000
 41
1.6000
 70
0
  0
VERTEX
  8
51
 10
-2.0000
 20
-9.8000
 30
0.0000
 42
1.0000
  0
VERTEX
  8
51
 10
-2.0000
 20
-8.2000
 30
0.0000
 42
1.0000
  0
VERTEX
  8
51
 10
-2.0000
 20
-9.8000
 30
0.0000
  0
SEQEND
  8
0
  0
POLYLINE
  8
51
 66
1
 10
0.0000
 20
0.0000
 30
0.0000
 40
1.6000
 41
1.6000
 70
0
  0
VERTEX
  8
51
 10
37.0000
 20
-9.8000
 30
0.0000
 42
1.0000
  0
VERTEX
  8
51
 10
37.0000
 20
-8.2000
 30
0.0000
 42
1.0000
  0
VERTEX
  8
51
 10
37.0000
 20
-9.8000
 30
0.0000
  0
SEQEND
  8
0
  0
POLYLINE
  8
51
 66
1
 10
0.0000
 20
0.0000
 30
0.0000
 40
1.6000
 41
1.6000
 70
0
  0
VERTEX
  8
51
 10
37.0000
 20
8.2000
 30
0.0000
 42
1.0000
  0
VERTEX
  8
51
 10
37.0000
 20
9.8000
 30
0.0000
 42
1.0000
  0
VERTEX
  8
51
 10
37.0000
 20
8.2000
 30
0.0000
  0
SEQEND
  8
0
  0
POLYLINE
  8
51
 66
1
 10
0.0000
 20
0.0000
 30
0.0000
 40
0.1524
 41
0.1524
 70
0
  0
VERTEX
  8
51
 10
3.0550
 20
6.2240
 30
0.0000
  0
VERTEX
  8
51
 10
3.5450
 20
6.2240
 30
0.0000
  0
SEQEND
  8
0
  0
POLYLINE
  8
51
 66
1
 10
0.0000
 20
0.0000
 30
0.0000
 40
0.0762
 41
0.0762
 70
0
  0
VERTEX
  8
51
 10
3.5450
 20
6.1859
 30
0.0000
 42
1.0000
  0
VERTEX
  8
51
 10
3.5450
 20
6.2621
 30
0.0000
  0
SEQEND
  8
0
  0
POLYLINE
  8
51
 66
1
 10
0.0000
 20
0.0000
 30
0.0000
 40
0.0762
 41
0.0762
 70
0
  0
VERTEX
  8
51
 10
3.0550
 20
6.2621
 30
0.0000
 42
1.0000
  0
VERTEX
  8
51
 10
3.0550
 20
6.1859
 30
0.0000
  0
SEQEND
  8
0
  0
POLYLINE
  8
51
 66
1
 10
0.0000
 20
0.0000
 30
0.0000
 40
0.1524
 41
0.1524
 70
0
  0
VERTEX
  8
51
 10
3.5450
 20
5.7760
 30
0.0000
  0
VERTEX
  8
51
 10
3.0550
 20
5.7760
 30
0.0000
  0
SEQEND
  8
0
  0
POLYLINE
  8
51
 66
1
 10
0.0000
 20
0.0000
 30
0.0000
 40
0.0762
 41
0.0762
 70
0
  0
VERTEX
  8
51
 10
3.0550
 20
5.8141
 30
0.0000
 42
1.0000
  0
VERTEX
  8
51
 10
3.0550
 20
5.7379
 30
0.0000
  0
SEQEND
  8
0
  0
POLYLINE
  8
51
 66
1
 10
0.0000
 20
0.0000
 30
0.0000
 40
0.0762
 41
0.0762
 70
0
  0
VERTEX
  8
51
 10
3.5450
 20
5.7379
 30
0.0000
 42
1.0000
  0
VERTEX
  8
51
 10
3.5450
 20
5.8141
 30
0.0000
  0
SEQEND
  8
0
  0
INSERT
  8
51
  2
RECT
 10
2.8960
 20
5.9951
 30
0.0000
 41
0.3000
 42
0.5999
 43
1.0000
 50
0.0000
  0
INSERT
  8
51
  2
RECT
 10
3.7088
 20
5.9951
 30
0.0000
 41
0.3000
 42
0.5999
 43
1.0000
 50
0.0000
  0
POLYLINE
  8
51
 66
1
 10
0.0000
 20
0.0000
 30
0.0000
 40
0.1524
 41
0.1524
 70
0
  0
VERTEX
  8
51
 10
10.5740
 20
7.4950
 30
0.0000
  0
VERTEX
  8
51
 10
10.5740
 20
7.0050
 30
0.0000
  0
SEQEND
  8
0
  0
POLYLINE
  8
51
 66
1
 10
0.0000
 20
0.0000
 30
0.0000
 40
0.0762
 41
0.0762
 70
0
  0
VERTEX
  8
51
 10
10.5359
 20
7.0050
 30
0.0000
 42
1.0000
  0
VERTEX
  8
51
 10
10.6121
 20
7.0050
 30
0.0000
  0
SEQEND
  8
0
  0
POLYLINE
  8
51
 66
1
 10
0.0000
 20
0.0000
 30
0.0000
 40
0.0762
 41
0.0762
 70
0
  0
VERTEX
  8
51
 10
10.6121
 20
7.4950
 30
0.0000
 42
1.0000
  0
VERTEX
  8
51
 10
10.5359
 20
7.4950
 30
0.0000
  0
SEQEND
  8
0
  0
POLYLINE
  8
51
 66
1
 10
0.0000
 20
0.0000
 30
0.0000
 40
0.1524
 41
0.1524
 70
0
  0
VERTEX
  8
51
 10
10.1260
 20
7.0050
 30
0.0000
  0
VERTEX
  8
51
 10
10.1260
 20
7.4950
 30
0.0000
  0
SEQEND
  8
0
  0
POLYLINE
  8
51
 66
1
 10
0.0000
 20
0.0000
 30
0.0000
 40
0.0762
 41
0.0762
 70
0
  0
VERTEX
  8
51
 10
10.1641
 20
7.4950
 30
0.0000
 42
1.0000
  0
VERTEX
  8
51
 10
10.0879
 20
7.4950
 30
0.0000
  0
SEQEND
  8
0
  0
POLYLINE
  8
51
 66
1
 10
0.0000
 20
0.0000
 30
0.0000
 40
0.0762
 41
0.0762
 70
0
  0
VERTEX
  8
51
 10
10.0879
 20
7.0050
 30
0.0000
 42
1.0000
  0
VERTEX
  8
51
 10
10.1641
 20
7.0050
 30
0.0000
  0
SEQEND
  8
0
  0
INSERT
  8
51
  2
RECT
 10
10.3452
 20
7.6539
 30
0.0000
 41
0.3000
 42
0.5999
 43
1.0000
 50
270.0000
  0
INSERT
  8
51
  2
RECT
 10
10.3452
 20
6.8411
 30
0.0000
 41
0.3000
 42
0.5999
 43
1.0000
 50
270.0000
  0
POLYLINE
  8
51
 66
1
 10
0.0000
 20
0.0000
 30
0.0000
 40
0.1524
 41
0.1524
 70
0
  0
VERTEX
  8
51
 10
15.1240
 20
4.7450
 30
0.0000
  0
VERTEX
  8
51
 10
15.1240
 20
4.2550
 30
0.0000
  0
SEQEND
  8
0
  0
POLYLINE
  8
51
 66
1
 10
0.0000
 20
0.0000
 30
0.0000
 40
0.0762
 41
0.0762
 70
0
  0
VERTEX
  8
51
 10
15.0859
 20
4.2550
 30
0.0000
 42
1.0000
  0
VERTEX
  8
51
 10
15.1621
 20
4.2550
 30
0.0000
  0
SEQEND
  8
0
  0
POLYLINE
  8
51
 66
1
 10
0.0000
 20
0.0000
 30
0.0000
 40
0.0762
 41
0.0762
 70
0
  0
VERTEX
  8
51
 10
15.1621
 20
4.7450
 30
0.0000
 42
1.0000
  0
VERTEX
  8
51
 10
15.0859
 20
4.7450
 30
0.0000
  0
SEQEND
  8
0
  0
POLYLINE
  8
51
 66
1
 10
0.0000
 20
0.0000
 30
0.0000
 40
0.1524
 41
0.1524
 70
0
  0
VERTEX
  8
51
 10
14.6760
 20
4.2550
 30
0.0000
  0
VERTEX
  8
51
 10
14.6760
 20
4.7450
 30
0.0000
  0
SEQEND
  8
0
  0
POLYLINE
  8
51
 66
1
 10
0.0000
 20
0.0000
 30
0.0000
 40
0.0762
 41
0.0762
 70
0
  0
VERTEX
  8
51
 10
14.7141
 20
4.7450
 30
0.0000
 42
1.0000
  0
VERTEX
  8
51
 10
14.6379
 20
4.7450
 30
0.0000
  0
SEQEND
  8
0
  0
POLYLINE
  8
51
 66
1
 10
0.0000
 20
0.0000
 30
0.0000
 40
0.0762
 41
0.0762
 70
0
  0
VERTEX
  8
51
 10
14.6379
 20
4.2550
 30
0.0000
 42
1.0000
  0
VERTEX
  8
51
 10
14.7141
 20
4.2550
 30
0.0000
  0
SEQEND
  8
0
  0
INSERT
  8
51
  2
RECT
 10
14.8952
 20
4.9039
 30
0.0000
 41
0.3000
 42
0.5999
 43
1.0000
 50
270.0000
  0
INSERT
  8
51
  2
RECT
 10
14.8952
 20
4.0911
 30
0.0000
 41
0.3000
 42
0.5999
 43
1.0000
 50
270.0000
  0
POLYLINE
  8
51
 66
1
 10
0.0000
 20
0.0000
 30
0.0000
 40
0.1016
 41
0.1016
 70
0
  0
VERTEX
  8
51
 10
22.7870
 20
9.6650
 30
0.0000
  0
VERTEX
  8
51
 10
22.7870
 20
7.7350
 30
0.0000
  0
SEQEND
  8
0
  0
POLYLINE
  8
51
 66
1
 10
0.0000
 20
0.0000
 30
0.0000
 40
0.0508
 41
0.0508
 70
0
  0
VERTEX
  8
51
 10
22.7616
 20
7.7350
 30
0.0000
 42
1.0000
  0
VERTEX
  8
51
 10
22.8124
 20
7.7350
 30
0.0000
  0
SEQEND
  8
0
  0
POLYLINE
  8
51
 66
1
 10
0.0000
 20
0.0000
 30
0.0000
 40
0.0508
 41
0.0508
 70
0
  0
VERTEX
  8
51
 10
22.8124
 20
9.6650
 30
0.0000
 42
1.0000
  0
VERTEX
  8
51
 10
22.7616
 20
9.6650
 30
0.0000
  0
SEQEND
  8
0
  0
POLYLINE
  8
51
 66
1
 10
0.0000
 20
0.0000
 30
0.0000
 40
0.1016
 41
0.1016
 70
0
  0
VERTEX
  8
51
 10
21.2130
 20
9.6650
 30
0.0000
  0
VERTEX
  8
51
 10
21.2130
 20
7.7350
 30
0.0000
  0
SEQEND
  8
0
  0
POLYLINE
  8
51
 66
1
 10
0.0000
 20
0.0000
 30
0.0000
 40
0.0508
 41
0.0508
 70
0
  0
VERTEX
  8
51
 10
21.1876
 20
7.7350
 30
0.0000
 42
1.0000
  0
VERTEX
  8
51
 10
21.2384
 20
7.7350
 30
0.0000
  0
SEQEND
  8
0
  0
POLYLINE
  8
51
 66
1
 10
0.0000
 20
0.0000
 30
0.0000
 40
0.0508
 41
0.0508
 70
0
  0
VERTEX
  8
51
 10
21.2384
 20
9.6650
 30
0.0000
 42
1.0000
  0
VERTEX
  8
51
 10
21.1876
 20
9.6650
 30
0.0000
  0
SEQEND
  8
0
  0
INSERT
  8
51
  2
RECT
 10
21.9990
 20
10.0267
 30
0.0000
 41
0.7501
 42
1.7000
 43
1.0000
 50
270.0000
  0
INSERT
  8
51
  2
RECT
 10
22.0009
 20
7.3733
 30
0.0000
 41
0.7501
 42
1.7000
 43
1.0000
 50
270.0000
  0
POLYLINE
  8
51
 66
1
 10
0.0000
 20
0.0000
 30
0.0000
 40
0.1016
 41
0.1016
 70
0
  0
VERTEX
  8
51
 10
27.6370
 20
9.6650
 30
0.0000
  0
VERTEX
  8
51
 10
27.6370
 20
7.7350
 30
0.0000
  0
SEQEND
  8
0
  0
POLYLINE
  8
51
 66
1
 10
0.0000
 20
0.0000
 30
0.0000
 40
0.0508
 41
0.0508
 70
0
  0
VERTEX
  8
51
 10
27.6116
 20
7.7350
 30
0.0000
 42
1.0000
  0
VERTEX
  8
51
 10
27.6624
 20
7.7350
 30
0.0000
  0
SEQEND
  8
0
  0
POLYLINE
  8
51
 66
1
 10
0.0000
 20
0.0000
 30
0.0000
 40
0.0508
 41
0.0508
 70
0
  0
VERTEX
  8
51
 10
27.6624
 20
9.6650
 30
0.0000
 42
1.0000
  0
VERTEX
  8
51
 10
27.6116
 20
9.6650
 30
0.0000
  0
SEQEND
  8
0
  0
POLYLINE
  8
51
 66
1
 10
0.0000
 20
0.0000
 30
0.0000
 40
0.1016
 41
0.1016
 70
0
  0
VERTEX
  8
51
 10
26.0630
 20
9.6650
 30
0.0000
  0
VERTEX
  8
51
 10
26.0630
 20
7.7350
 30
0.0000
  0
SEQEND
  8
0
  0
POLYLINE
  8
51
 66
1
 10
0.0000
 20
0.0000
 30
0.0000
 40
0.0508
 41
0.0508
 70
0
  0
VERTEX
  8
51
 10
26.0376
 20
7.7350
 30
0.0000
 42
1.0000
  0
VERTEX
  8
51
 10
26.0884
 20
7.7350
 30
0.0000
  0
SEQEND
  8
0
  0
POLYLINE
  8
51
 66
1
 10
0.0000
 20
0.0000
 30
0.0000
 40
0.0508
 41
0.0508
 70
0
  0
VERTEX
  8
51
 10
26.0884
 20
9.6650
 30
0.0000
 42
1.0000
  0
VERTEX
  8
51
 10
26.0376
 20
9.6650
 30
0.0000
  0
SEQEND
  8
0
  0
INSERT
  8
51
  2
RECT
 10
26.8490
 20
10.0267
 30
0.0000
 41
0.7501
 42
1.7000
 43
1.0000
 50
270.0000
  0
INSERT
  8
51
  2
RECT
 10
26.8509
 20
7.3733
 30
0.0000
 41
0.7501
 42
1.7000
 43
1.0000
 50
270.0000
  0
POLYLINE
  8
51
 66
1
 10
0.0000
 20
0.0000
 30
0.0000
 40
0.1524
 41
0.1524
 70
0
  0
VERTEX
  8
51
 10
3.0550
 20
-5.7760
 30
0.0000
  0
VERTEX
  8
51
 10
3.5450
 20
-5.7760
 30
0.0000
  0
SEQEND
  8
0
  0
POLYLINE
  8
51
 66
1
 10
0.0000
 20
0.0000
 30
0.0000
 40
0.0762
 41
0.0762
 70
0
  0
VERTEX
  8
51
 10
3.5450
 20
-5.8141
 30
0.0000
 42
1.0000
  0
VERTEX
  8
51
 10
3.5450
 20
-5.7379
 30
0.0000
  0
SEQEND
  8
0
  0
POLYLINE
  8
51
 66
1
 10
0.0000
 20
0.0000
 30
0.0000
 40
0.0762
 41
0.0762
 70
0
  0
VERTEX
  8
51
 10
3.0550
 20
-5.7379
 30
0.0000
 42
1.0000
  0
VERTEX
  8
51
 10
3.0550
 20
-5.8141
 30
0.0000
  0
SEQEND
  8
0
  0
POLYLINE
  8
51
 66
1
 10
0.0000
 20
0.0000
 30
0.0000
 40
0.1524
 41
0.1524
 70
0
  0
VERTEX
  8
51
 10
3.5450
 20
-6.2240
 30
0.0000
  0
VERTEX
  8
51
 10
3.0550
 20
-6.2240
 30
0.0000
  0
SEQEND
  8
0
  0
POLYLINE
  8
51
 66
1
 10
0.0000
 20
0.0000
 30
0.0000
 40
0.0762
 41
0.0762
 70
0
  0
VERTEX
  8
51
 10
3.0550
 20
-6.1859
 30
0.0000
 42
1.0000
  0
VERTEX
  8
51
 10
3.0550
 20
-6.2621
 30
0.0000
  0
SEQEND
  8
0
  0
POLYLINE
  8
51
 66
1
 10
0.0000
 20
0.0000
 30
0.0000
 40
0.0762
 41
0.0762
 70
0
  0
VERTEX
  8
51
 10
3.5450
 20
-6.2621
 30
0.0000
 42
1.0000
  0
VERTEX
  8
51
 10
3.5450
 20
-6.1859
 30
0.0000
  0
SEQEND
  8
0
  0
INSERT
  8
51
  2
RECT
 10
2.8960
 20
-6.0048
 30
0.0000
 41
0.3000
 42
0.5999
 43
1.0000
 50
0.0000
  0
INSERT
  8
51
  2
RECT
 10
3.7088
 20
-6.0048
 30
0.0000
 41
0.3000
 42
0.5999
 43
1.0000
 50
0.0000
  0
POLYLINE
  8
51
 66
1
 10
0.0000
 20
0.0000
 30
0.0000
 40
0.1524
 41
0.1524
 70
0
  0
VERTEX
  8
51
 10
11.1450
 20
-2.7240
 30
0.0000
  0
VERTEX
  8
51
 10
10.6550
 20
-2.7240
 30
0.0000
  0
SEQEND
  8
0
  0
POLYLINE
  8
51
 66
1
 10
0.0000
 20
0.0000
 30
0.0000
 40
0.0762
 41
0.0762
 70
0
  0
VERTEX
  8
51
 10
10.6550
 20
-2.6859
 30
0.0000
 42
1.0000
  0
VERTEX
  8
51
 10
10.6550
 20
-2.7621
 30
0.0000
  0
SEQEND
  8
0
  0
POLYLINE
  8
51
 66
1
 10
0.0000
 20
0.0000
 30
0.0000
 40
0.0762
 41
0.0762
 70
0
  0
VERTEX
  8
51
 10
11.1450
 20
-2.7621
 30
0.0000
 42
1.0000
  0
VERTEX
  8
51
 10
11.1450
 20
-2.6859
 30
0.0000
  0
SEQEND
  8
0
  0
POLYLINE
  8
51
 66
1
 10
0.0000
 20
0.0000
 30
0.0000
 40
0.1524
 41
0.1524
 70
0
  0
VERTEX
  8
51
 10
10.6550
 20
-2.2760
 30
0.0000
  0
VERTEX
  8
51
 10
11.1450
 20
-2.2760
 30
0.0000
  0
SEQEND
  8
0
  0
POLYLINE
  8
51
 66
1
 10
0.0000
 20
0.0000
 30
0.0000
 40
0.0762
 41
0.0762
 70
0
  0
VERTEX
  8
51
 10
11.1450
 20
-2.3141
 30
0.0000
 42
1.0000
  0
VERTEX
  8
51
 10
11.1450
 20
-2.2379
 30
0.0000
  0
SEQEND
  8
0
  0
POLYLINE
  8
51
 66
1
 10
0.0000
 20
0.0000
 30
0.0000
 40
0.0762
 41
0.0762
 70
0
  0
VERTEX
  8
51
 10
10.6550
 20
-2.2379
 30
0.0000
 42
1.0000
  0
VERTEX
  8
51
 10
10.6550
 20
-2.3141
 30
0.0000
  0
SEQEND
  8
0
  0
INSERT
  8
51
  2
RECT
 10
11.3040
 20
-2.4952
 30
0.0000
 41
0.3000
 42
0.5999
 43
1.0000
 50
180.0000
  0
INSERT
  8
51
  2
RECT
 10
10.4912
 20
-2.4952
 30
0.0000
 41
0.3000
 42
0.5999
 43
1.0000
 50
180.0000
  0
POLYLINE
  8
51
 66
1
 10
0.0000
 20
0.0000
 30
0.0000
 40
0.1524
 41
0.1524
 70
0
  0
VERTEX
  8
51
 10
11.1450
 20
-4.2740
 30
0.0000
  0
VERTEX
  8
51
 10
10.6550
 20
-4.2740
 30
0.0000
  0
SEQEND
  8
0
  0
POLYLINE
  8
51
 66
1
 10
0.0000
 20
0.0000
 30
0.0000
 40
0.0762
 41
0.0762
 70
0
  0
VERTEX
  8
51
 10
10.6550
 20
-4.2359
 30
0.0000
 42
1.0000
  0
VERTEX
  8
51
 10
10.6550
 20
-4.3121
 30
0.0000
  0
SEQEND
  8
0
  0
POLYLINE
  8
51
 66
1
 10
0.0000
 20
0.0000
 30
0.0000
 40
0.0762
 41
0.0762
 70
0
  0
VERTEX
  8
51
 10
11.1450
 20
-4.3121
 30
0.0000
 42
1.0000
  0
VERTEX
  8
51
 10
11.1450
 20
-4.2359
 30
0.0000
  0
SEQEND
  8
0
  0
POLYLINE
  8
51
 66
1
 10
0.0000
 20
0.0000
 30
0.0000
 40
0.1524
 41
0.1524
 70
0
  0
VERTEX
  8
51
 10
10.6550
 20
-3.8260
 30
0.0000
  0
VERTEX
  8
51
 10
11.1450
 20
-3.8260
 30
0.0000
  0
SEQEND
  8
0
  0
POLYLINE
  8
51
 66
1
 10
0.0000
 20
0.0000
 30
0.0000
 40
0.0762
 41
0.0762
 70
0
  0
VERTEX
  8
51
 10
11.1450
 20
-3.8641
 30
0.0000
 42
1.0000
  0
VERTEX
  8
51
 10
11.1450
 20
-3.7879
 30
0.0000
  0
SEQEND
  8
0
  0
POLYLINE
  8
51
 66
1
 10
0.0000
 20
0.0000
 30
0.0000
 40
0.0762
 41
0.0762
 70
0
  0
VERTEX
  8
51
 10
10.6550
 20
-3.7879
 30
0.0000
 42
1.0000
  0
VERTEX
  8
51
 10
10.6550
 20
-3.8641
 30
0.0000
  0
SEQEND
  8
0
  0
INSERT
  8
51
  2
RECT
 10
11.3040
 20
-4.0452
 30
0.0000
 41
0.3000
 42
0.5999
 43
1.0000
 50
180.0000
  0
INSERT
  8
51
  2
RECT
 10
10.4912
 20
-4.0452
 30
0.0000
 41
0.3000
 42
0.5999
 43
1.0000
 50
180.0000
  0
POLYLINE
  8
51
 66
1
 10
0.0000
 20
0.0000
 30
0.0000
 40
0.1524
 41
0.1524
 70
0
  0
VERTEX
  8
51
 10
19.3450
 20
-4.5740
 30
0.0000
  0
VERTEX
  8
51
 10
18.8550
 20
-4.5740
 30
0.0000
  0
SEQEND
  8
0
  0
POLYLINE
  8
51
 66
1
 10
0.0000
 20
0.0000
 30
0.0000
 40
0.0762
 41
0.0762
 70
0
  0
VERTEX
  8
51
 10
18.8550
 20
-4.5359
 30
0.0000
 42
1.0000
  0
VERTEX
  8
51
 10
18.8550
 20
-4.6121
 30
0.0000
  0
SEQEND
  8
0
  0
POLYLINE
  8
51
 66
1
 10
0.0000
 20
0.0000
 30
0.0000
 40
0.0762
 41
0.0762
 70
0
  0
VERTEX
  8
51
 10
19.3450
 20
-4.6121
 30
0.0000
 42
1.0000
  0
VERTEX
  8
51
 10
19.3450
 20
-4.5359
 30
0.0000
  0
SEQEND
  8
0
  0
POLYLINE
  8
51
 66
1
 10
0.0000
 20
0.0000
 30
0.0000
 40
0.1524
 41
0.1524
 70
0
  0
VERTEX
  8
51
 10
18.8550
 20
-4.1260
 30
0.0000
  0
VERTEX
  8
51
 10
19.3450
 20
-4.1260
 30
0.0000
  0
SEQEND
  8
0
  0
POLYLINE
  8
51
 66
1
 10
0.0000
 20
0.0000
 30
0.0000
 40
0.0762
 41
0.0762
 70
0
  0
VERTEX
  8
51
 10
19.3450
 20
-4.1641
 30
0.0000
 42
1.0000
  0
VERTEX
  8
51
 10
19.3450
 20
-4.0879
 30
0.0000
  0
SEQEND
  8
0
  0
POLYLINE
  8
51
 66
1
 10
0.0000
 20
0.0000
 30
0.0000
 40
0.0762
 41
0.0762
 70
0
  0
VERTEX
  8
51
 10
18.8550
 20
-4.0879
 30
0.0000
 42
1.0000
  0
VERTEX
  8
51
 10
18.8550
 20
-4.1641
 30
0.0000
  0
SEQEND
  8
0
  0
INSERT
  8
51
  2
RECT
 10
19.5040
 20
-4.3452
 30
0.0000
 41
0.3000
 42
0.5999
 43
1.0000
 50
180.0000
  0
INSERT
  8
51
  2
RECT
 10
18.6912
 20
-4.3452
 30
0.0000
 41
0.3000
 42
0.5999
 43
1.0000
 50
180.0000
  0
POLYLINE
  8
51
 66
1
 10
0.0000
 20
0.0000
 30
0.0000
 40
0.1270
 41
0.1270
 70
0
  0
VERTEX
  8
51
 10
15.2000
 20
-2.9000
 30
0.0000
  0
VERTEX
  8
51
 10
12.0000
 20
-2.9000
 30
0.0000
  0
SEQEND
  8
0
  0
POLYLINE
  8
51
 66
1
 10
0.0000
 20
0.0000
 30
0.0000
 40
0.0635
 41
0.0635
 70
0
  0
VERTEX
  8
51
 10
12.0000
 20
-2.8683
 30
0.0000
 42
1.0000
  0
VERTEX
  8
51
 10
12.0000
 20
-2.9318
 30
0.0000
  0
SEQEND
  8
0
  0
POLYLINE
  8
51
 66
1
 10
0.0000
 20
0.0000
 30
0.0000
 40
0.0635
 41
0.0635
 70
0
  0
VERTEX
  8
51
 10
15.2000
 20
-2.9318
 30
0.0000
 42
1.0000
  0
VERTEX
  8
51
 10
15.2000
 20
-2.8683
 30
0.0000
  0
SEQEND
  8
0
  0
POLYLINE
  8
21
 66
1
 10
0.0000
 20
0.0000
 30
0.0000
 40
0.1270
 41
0.1270
 70
0
  0
VERTEX
  8
21
 10
12.0000
 20
-2.9000
 30
0.0000
  0
VERTEX
  8
21
 10
12.0000
 20
-4.5000
 30
0.0000
  0
SEQEND
  8
0
  0
POLYLINE
  8
21
 66
1
 10
0.0000
 20
0.0000
 30
0.0000
 40
0.0635
 41
0.0635
 70
0
  0
VERTEX
  8
21
 10
11.9682
 20
-4.5000
 30
0.0000
 42
1.0000
  0
VERTEX
  8
21
 10
12.0318
 20
-4.5000
 30
0.0000
  0
SEQEND
  8
0
  0
POLYLINE
  8
21
 66
1
 10
0.0000
 20
0.0000
 30
0.0000
 40
0.0635
 41
0.0635
 70
0
  0
VERTEX
  8
21
 10
12.0318
 20
-2.9000
 30
0.0000
 42
1.0000
  0
VERTEX
  8
21
 10
11.9682
 20
-2.9000
 30
0.0000
  0
SEQEND
  8
0
  0
POLYLINE
  8
51
 66
1
 10
0.0000
 20
0.0000
 30
0.0000
 40
0.1270
 41
0.1270
 70
0
  0
VERTEX
  8
51
 10
12.0000
 20
-4.5000
 30
0.0000
  0
VERTEX
  8
51
 10
15.2000
 20
-4.5000
 30
0.0000
  0
SEQEND
  8
0
  0
POLYLINE
  8
51
 66
1
 10
0.0000
 20
0.0000
 30
0.0000
 40
0.0635
 41
0.0635
 70
0
  0
VERTEX
  8
51
 10
15.2000
 20
-4.5317
 30
0.0000
 42
1.0000
  0
VERTEX
  8
51
 10
15.2000
 20
-4.4683
 30
0.0000
  0
SEQEND
  8
0
  0
POLYLINE
  8
51
 66
1
 10
0.0000
 20
0.0000
 30
0.0000
 40
0.0635
 41
0.0635
 70
0
  0
VERTEX
  8
51
 10
12.0000
 20
-4.4683
 30
0.0000
 42
1.0000
  0
VERTEX
  8
51
 10
12.0000
 20
-4.5317
 30
0.0000
  0
SEQEND
  8
0
  0
POLYLINE
  8
21
 66
1
 10
0.0000
 20
0.0000
 30
0.0000
 40
0.1270
 41
0.1270
 70
0
  0
VERTEX
  8
21
 10
15.2000
 20
-4.5000
 30
0.0000
  0
VERTEX
  8
21
 10
15.2000
 20
-2.9000
 30
0.0000
  0
SEQEND
  8
0
  0
POLYLINE
  8
21
 66
1
 10
0.0000
 20
0.0000
 30
0.0000
 40
0.0635
 41
0.0635
 70
0
  0
VERTEX
  8
21
 10
15.2318
 20
-2.9000
 30
0.0000
 42
1.0000
  0
VERTEX
  8
21
 10
15.1683
 20
-2.9000
 30
0.0000
  0
SEQEND
  8
0
  0
POLYLINE
  8
21
 66
1
 10
0.0000
 20
0.0000
 30
0.0000
 40
0.0635
 41
0.0635
 70
0
  0
VERTEX
  8
21
 10
15.1683
 20
-4.5000
 30
0.0000
 42
1.0000
  0
VERTEX
  8
21
 10
15.2318
 20
-4.5000
 30
0.0000
  0
SEQEND
  8
0
  0
POLYLINE
  8
51
 66
1
 10
0.0000
 20
0.0000
 30
0.0000
 40
0.1270
 41
0.1270
 70
0
  0
VERTEX
  8
51
 10
12.0000
 20
-4.2000
 30
0.0000
  0
VERTEX
  8
51
 10
15.2000
 20
-4.2000
 30
0.0000
  0
SEQEND
  8
0
  0
POLYLINE
  8
51
 66
1
 10
0.0000
 20
0.0000
 30
0.0000
 40
0.0635
 41
0.0635
 70
0
  0
VERTEX
  8
51
 10
15.2000
 20
-4.2317
 30
0.0000
 42
1.0000
  0
VERTEX
  8
51
 10
15.2000
 20
-4.1683
 30
0.0000
  0
SEQEND
  8
0
  0
POLYLINE
  8
51
 66
1
 10
0.0000
 20
0.0000
 30
0.0000
 40
0.0635
 41
0.0635
 70
0
  0
VERTEX
  8
51
 10
12.0000
 20
-4.1683
 30
0.0000
 42
1.0000
  0
VERTEX
  8
51
 10
12.0000
 20
-4.2317
 30
0.0000
  0
SEQEND
  8
0
  0
POLYLINE
  8
51
 66
1
 10
0.0000
 20
0.0000
 30
0.0000
 40
0.1270
 41
0.1270
 70
0
  0
VERTEX
  8
51
 10
15.2000
 20
-3.2000
 30
0.0000
  0
VERTEX
  8
51
 10
12.0000
 20
-3.2000
 30
0.0000
  0
SEQEND
  8
0
  0
POLYLINE
  8
51
 66
1
 10
0.0000
 20
0.0000
 30
0.0000
 40
0.0635
 41
0.0635
 70
0
  0
VERTEX
  8
51
 10
12.0000
 20
-3.1683
 30
0.0000
 42
1.0000
  0
VERTEX
  8
51
 10
12.0000
 20
-3.2318
 30
0.0000
  0
SEQEND
  8
0
  0
POLYLINE
  8
51
 66
1
 10
0.0000
 20
0.0000
 30
0.0000
 40
0.0635
 41
0.0635
 70
0
  0
VERTEX
  8
51
 10
15.2000
 20
-3.2318
 30
0.0000
 42
1.0000
  0
VERTEX
  8
51
 10
15.2000
 20
-3.1683
 30
0.0000
  0
SEQEND
  8
0
  0
POLYLINE
  8
51
 66
1
 10
0.0000
 20
0.0000
 30
0.0000
 40
0.1524
 41
0.1524
 70
0
  0
VERTEX
  8
51
 10
23.6372
 20
7.7475
 30
0.0000
  0
VERTEX
  8
51
 10
23.6372
 20
9.6652
 30
0.0000
  0
SEQEND
  8
0
  0
POLYLINE
  8
51
 66
1
 10
0.0000
 20
0.0000
 30
0.0000
 40
0.0762
 41
0.0762
 70
0
  0
VERTEX
  8
51
 10
23.6753
 20
9.6652
 30
0.0000
 42
1.0000
  0
VERTEX
  8
51
 10
23.5991
 20
9.6652
 30
0.0000
  0
SEQEND
  8
0
  0
POLYLINE
  8
51
 66
1
 10
0.0000
 20
0.0000
 30
0.0000
 40
0.0762
 41
0.0762
 70
0
  0
VERTEX
  8
51
 10
23.5991
 20
7.7475
 30
0.0000
 42
1.0000
  0
VERTEX
  8
51
 10
23.6753
 20
7.7475
 30
0.0000
  0
SEQEND
  8
0
  0
POLYLINE
  8
51
 66
1
 10
0.0000
 20
0.0000
 30
0.0000
 40
0.1524
 41
0.1524
 70
0
  0
VERTEX
  8
51
 10
25.2628
 20
7.7475
 30
0.0000
  0
VERTEX
  8
51
 10
25.2628
 20
9.6652
 30
0.0000
  0
SEQEND
  8
0
  0
POLYLINE
  8
51
 66
1
 10
0.0000
 20
0.0000
 30
0.0000
 40
0.0762
 41
0.0762
 70
0
  0
VERTEX
  8
51
 10
25.3009
 20
9.6652
 30
0.0000
 42
1.0000
  0
VERTEX
  8
51
 10
25.2247
 20
9.6652
 30
0.0000
  0
SEQEND
  8
0
  0
POLYLINE
  8
51
 66
1
 10
0.0000
 20
0.0000
 30
0.0000
 40
0.0762
 41
0.0762
 70
0
  0
VERTEX
  8
51
 10
25.2247
 20
7.7475
 30
0.0000
 42
1.0000
  0
VERTEX
  8
51
 10
25.3009
 20
7.7475
 30
0.0000
  0
SEQEND
  8
0
  0
INSERT
  8
51
  2
RECT
 10
24.4500
 20
10.0208
 30
0.0000
 41
0.7366
 42
1.7526
 43
1.0000
 50
270.0000
  0
INSERT
  8
51
  2
RECT
 10
24.4500
 20
7.3792
 30
0.0000
 41
0.7366
 42
1.7526
 43
1.0000
 50
270.0000
  0
POLYLINE
  8
21
 66
1
 10
0.0000
 20
0.0000
 30
0.0000
 40
0.1270
 41
0.1270
 70
0
  0
VERTEX
  8
21
 10
-0.1000
 20
5.3400
 30
0.0000
  0
VERTEX
  8
21
 10
-0.1000
 20
-5.2800
 30
0.0000
  0
SEQEND
  8
0
  0
POLYLINE
  8
21
 66
1
 10
0.0000
 20
0.0000
 30
0.0000
 40
0.0635
 41
0.0635
 70
0
  0
VERTEX
  8
21
 10
-0.1318
 20
-5.2800
 30
0.0000
 42
1.0000
  0
VERTEX
  8
21
 10
-0.0683
 20
-5.2800
 30
0.0000
  0
SEQEND
  8
0
  0
POLYLINE
  8
21
 66
1
 10
0.0000
 20
0.0000
 30
0.0000
 40
0.0635
 41
0.0635
 70
0
  0
VERTEX
  8
21
 10
-0.0683
 20
5.3400
 30
0.0000
 42
1.0000
  0
VERTEX
  8
21
 10
-0.1318
 20
5.3400
 30
0.0000
  0
SEQEND
  8
0
  0
POLYLINE
  8
21
 66
1
 10
0.0000
 20
0.0000
 30
0.0000
 40
0.1270
 41
0.1270
 70
0
  0
VERTEX
  8
21
 10
-0.1000
 20
-5.2800
 30
0.0000
  0
VERTEX
  8
21
 10
6.1000
 20
-5.2800
 30
0.0000
  0
SEQEND
  8
0
  0
POLYLINE
  8
21
 66
1
 10
0.0000
 20
0.0000
 30
0.0000
 40
0.0635
 41
0.0635
 70
0
  0
VERTEX
  8
21
 10
6.1000
 20
-5.3117
 30
0.0000
 42
1.0000
  0
VERTEX
  8
21
 10
6.1000
 20
-5.2483
 30
0.0000
  0
SEQEND
  8
0
  0
POLYLINE
  8
21
 66
1
 10
0.0000
 20
0.0000
 30
0.0000
 40
0.0635
 41
0.0635
 70
0
  0
VERTEX
  8
21
 10
-0.1000
 20
-5.2483
 30
0.0000
 42
1.0000
  0
VERTEX
  8
21
 10
-0.1000
 20
-5.3117
 30
0.0000
  0
SEQEND
  8
0
  0
POLYLINE
  8
21
 66
1
 10
0.0000
 20
0.0000
 30
0.0000
 40
0.1270
 41
0.1270
 70
0
  0
VERTEX
  8
21
 10
6.1000
 20
-5.2800
 30
0.0000
  0
VERTEX
  8
21
 10
6.1000
 20
5.3400
 30
0.0000
  0
SEQEND
  8
0
  0
POLYLINE
  8
21
 66
1
 10
0.0000
 20
0.0000
 30
0.0000
 40
0.0635
 41
0.0635
 70
0
  0
VERTEX
  8
21
 10
6.1318
 20
5.3400
 30
0.0000
 42
1.0000
  0
VERTEX
  8
21
 10
6.0683
 20
5.3400
 30
0.0000
  0
SEQEND
  8
0
  0
POLYLINE
  8
21
 66
1
 10
0.0000
 20
0.0000
 30
0.0000
 40
0.0635
 41
0.0635
 70
0
  0
VERTEX
  8
21
 10
6.0683
 20
-5.2800
 30
0.0000
 42
1.0000
  0
VERTEX
  8
21
 10
6.1318
 20
-5.2800
 30
0.0000
  0
SEQEND
  8
0
  0
POLYLINE
  8
21
 66
1
 10
0.0000
 20
0.0000
 30
0.0000
 40
0.1270
 41
0.1270
 70
0
  0
VERTEX
  8
21
 10
6.1000
 20
5.3400
 30
0.0000
  0
VERTEX
  8
21
 10
-0.1000
 20
5.3400
 30
0.0000
  0
SEQEND
  8
0
  0
POLYLINE
  8
21
 66
1
 10
0.0000
 20
0.0000
 30
0.0000
 40
0.0635
 41
0.0635
 70
0
  0
VERTEX
  8
21
 10
-0.1000
 20
5.3717
 30
0.0000
 42
1.0000
  0
VERTEX
  8
21
 10
-0.1000
 20
5.3083
 30
0.0000
  0
SEQEND
  8
0
  0
POLYLINE
  8
21
 66
1
 10
0.0000
 20
0.0000
 30
0.0000
 40
0.0635
 41
0.0635
 70
0
  0
VERTEX
  8
21
 10
6.1000
 20
5.3083
 30
0.0000
 42
1.0000
  0
VERTEX
  8
21
 10
6.1000
 20
5.3717
 30
0.0000
  0
SEQEND
  8
0
  0
POLYLINE
  8
51
 66
1
 10
0.0000
 20
0.0000
 30
0.0000
 40
0.1270
 41
0.1270
 70
0
  0
VERTEX
  8
51
 10
1.0950
 20
5.1100
 30
0.0000
  0
VERTEX
  8
51
 10
1.0950
 20
2.5700
 30
0.0000
  0
SEQEND
  8
0
  0
POLYLINE
  8
51
 66
1
 10
0.0000
 20
0.0000
 30
0.0000
 40
0.0635
 41
0.0635
 70
0
  0
VERTEX
  8
51
 10
1.0633
 20
2.5700
 30
0.0000
 42
1.0000
  0
VERTEX
  8
51
 10
1.1267
 20
2.5700
 30
0.0000
  0
SEQEND
  8
0
  0
POLYLINE
  8
51
 66
1
 10
0.0000
 20
0.0000
 30
0.0000
 40
0.0635
 41
0.0635
 70
0
  0
VERTEX
  8
51
 10
1.1267
 20
5.1100
 30
0.0000
 42
1.0000
  0
VERTEX
  8
51
 10
1.0633
 20
5.1100
 30
0.0000
  0
SEQEND
  8
0
  0
POLYLINE
  8
51
 66
1
 10
0.0000
 20
0.0000
 30
0.0000
 40
0.1270
 41
0.1270
 70
0
  0
VERTEX
  8
51
 10
1.0950
 20
2.5700
 30
0.0000
  0
VERTEX
  8
51
 10
1.0950
 20
0.0300
 30
0.0000
  0
SEQEND
  8
0
  0
POLYLINE
  8
51
 66
1
 10
0.0000
 20
0.0000
 30
0.0000
 40
0.0635
 41
0.0635
 70
0
  0
VERTEX
  8
51
 10
1.0633
 20
0.0300
 30
0.0000
 42
1.0000
  0
VERTEX
  8
51
 10
1.1267
 20
0.0300
 30
0.0000
  0
SEQEND
  8
0
  0
POLYLINE
  8
51
 66
1
 10
0.0000
 20
0.0000
 30
0.0000
 40
0.0635
 41
0.0635
 70
0
  0
VERTEX
  8
51
 10
1.1267
 20
2.5700
 30
0.0000
 42
1.0000
  0
VERTEX
  8
51
 10
1.0633
 20
2.5700
 30
0.0000
  0
SEQEND
  8
0
  0
POLYLINE
  8
51
 66
1
 10
0.0000
 20
0.0000
 30
0.0000
 40
0.1270
 41
0.1270
 70
0
  0
VERTEX
  8
51
 10
1.0950
 20
0.0300
 30
0.0000
  0
VERTEX
  8
51
 10
1.0950
 20
-2.5100
 30
0.0000
  0
SEQEND
  8
0
  0
POLYLINE
  8
51
 66
1
 10
0.0000
 20
0.0000
 30
0.0000
 40
0.0635
 41
0.0635
 70
0
  0
VERTEX
  8
51
 10
1.0633
 20
-2.5100
 30
0.0000
 42
1.0000
  0
VERTEX
  8
51
 10
1.1267
 20
-2.5100
 30
0.0000
  0
SEQEND
  8
0
  0
POLYLINE
  8
51
 66
1
 10
0.0000
 20
0.0000
 30
0.0000
 40
0.0635
 41
0.0635
 70
0
  0
VERTEX
  8
51
 10
1.1267
 20
0.0300
 30
0.0000
 42
1.0000
  0
VERTEX
  8
51
 10
1.0633
 20
0.0300
 30
0.0000
  0
SEQEND
  8
0
  0
POLYLINE
  8
51
 66
1
 10
0.0000
 20
0.0000
 30
0.0000
 40
0.1270
 41
0.1270
 70
0
  0
VERTEX
  8
51
 10
1.0950
 20
-2.5100
 30
0.0000
  0
VERTEX
  8
51
 10
1.0950
 20
-5.0500
 30
0.0000
  0
SEQEND
  8
0
  0
POLYLINE
  8
51
 66
1
 10
0.0000
 20
0.0000
 30
0.0000
 40
0.0635
 41
0.0635
 70
0
  0
VERTEX
  8
51
 10
1.0633
 20
-5.0500
 30
0.0000
 42
1.0000
  0
VERTEX
  8
51
 10
1.1267
 20
-5.0500
 30
0.0000
  0
SEQEND
  8
0
  0
POLYLINE
  8
51
 66
1
 10
0.0000
 20
0.0000
 30
0.0000
 40
0.0635
 41
0.0635
 70
0
  0
VERTEX
  8
51
 10
1.1267
 20
-2.5100
 30
0.0000
 42
1.0000
  0
VERTEX
  8
51
 10
1.0633
 20
-2.5100
 30
0.0000
  0
SEQEND
  8
0
  0
POLYLINE
  8
51
 66
1
 10
0.0000
 20
0.0000
 30
0.0000
 40
0.1270
 41
0.1270
 70
0
  0
VERTEX
  8
51
 10
1.0950
 20
2.5700
 30
0.0000
  0
VERTEX
  8
51
 10
0.0000
 20
2.5700
 30
0.0000
  0
SEQEND
  8
0
  0
POLYLINE
  8
51
 66
1
 10
0.0000
 20
0.0000
 30
0.0000
 40
0.0635
 41
0.0635
 70
0
  0
VERTEX
  8
51
 10
0.0000
 20
2.6018
 30
0.0000
 42
1.0000
  0
VERTEX
  8
51
 10
0.0000
 20
2.5383
 30
0.0000
  0
SEQEND
  8
0
  0
POLYLINE
  8
51
 66
1
 10
0.0000
 20
0.0000
 30
0.0000
 40
0.0635
 41
0.0635
 70
0
  0
VERTEX
  8
51
 10
1.0950
 20
2.5383
 30
0.0000
 42
1.0000
  0
VERTEX
  8
51
 10
1.0950
 20
2.6018
 30
0.0000
  0
SEQEND
  8
0
  0
POLYLINE
  8
51
 66
1
 10
0.0000
 20
0.0000
 30
0.0000
 40
0.1270
 41
0.1270
 70
0
  0
VERTEX
  8
51
 10
1.0950
 20
0.0300
 30
0.0000
  0
VERTEX
  8
51
 10
0.0000
 20
0.0300
 30
0.0000
  0
SEQEND
  8
0
  0
POLYLINE
  8
51
 66
1
 10
0.0000
 20
0.0000
 30
0.0000
 40
0.0635
 41
0.0635
 70
0
  0
VERTEX
  8
51
 10
0.0000
 20
0.0617
 30
0.0000
 42
1.0000
  0
VERTEX
  8
51
 10
0.0000
 20
-0.0017
 30
0.0000
  0
SEQEND
  8
0
  0
POLYLINE
  8
51
 66
1
 10
0.0000
 20
0.0000
 30
0.0000
 40
0.0635
 41
0.0635
 70
0
  0
VERTEX
  8
51
 10
1.0950
 20
-0.0017
 30
0.0000
 42
1.0000
  0
VERTEX
  8
51
 10
1.0950
 20
0.0617
 30
0.0000
  0
SEQEND
  8
0
  0
POLYLINE
  8
51
 66
1
 10
0.0000
 20
0.0000
 30
0.0000
 40
0.1270
 41
0.1270
 70
0
  0
VERTEX
  8
51
 10
1.0950
 20
-2.5100
 30
0.0000
  0
VERTEX
  8
51
 10
0.0000
 20
-2.5100
 30
0.0000
  0
SEQEND
  8
0
  0
POLYLINE
  8
51
 66
1
 10
0.0000
 20
0.0000
 30
0.0000
 40
0.0635
 41
0.0635
 70
0
  0
VERTEX
  8
51
 10
0.0000
 20
-2.4783
 30
0.0000
 42
1.0000
  0
VERTEX
  8
51
 10
0.0000
 20
-2.5418
 30
0.0000
  0
SEQEND
  8
0
  0
POLYLINE
  8
51
 66
1
 10
0.0000
 20
0.0000
 30
0.0000
 40
0.0635
 41
0.0635
 70
0
  0
VERTEX
  8
51
 10
1.0950
 20
-2.5418
 30
0.0000
 42
1.0000
  0
VERTEX
  8
51
 10
1.0950
 20
-2.4783
 30
0.0000
  0
SEQEND
  8
0
  0
POLYLINE
  8
51
 66
1
 10
0.0000
 20
0.0000
 30
0.0000
 40
0.1270
 41
0.1270
 70
0
  0
VERTEX
  8
51
 10
6.2500
 20
5.2500
 30
0.0000
  0
VERTEX
  8
51
 10
6.2500
 20
-5.0500
 30
0.0000
  0
SEQEND
  8
0
  0
POLYLINE
  8
51
 66
1
 10
0.0000
 20
0.0000
 30
0.0000
 40
0.0635
 41
0.0635
 70
0
  0
VERTEX
  8
51
 10
6.2183
 20
-5.0500
 30
0.0000
 42
1.0000
  0
VERTEX
  8
51
 10
6.2817
 20
-5.0500
 30
0.0000
  0
SEQEND
  8
0
  0
POLYLINE
  8
51
 66
1
 10
0.0000
 20
0.0000
 30
0.0000
 40
0.0635
 41
0.0635
 70
0
  0
VERTEX
  8
51
 10
6.2817
 20
5.2500
 30
0.0000
 42
1.0000
  0
VERTEX
  8
51
 10
6.2183
 20
5.2500
 30
0.0000
  0
SEQEND
  8
0
  0
POLYLINE
  8
51
 66
1
 10
0.0000
 20
0.0000
 30
0.0000
 40
0.1270
 41
0.1270
 70
0
  0
VERTEX
  8
51
 10
-0.2500
 20
5.2000
 30
0.0000
  0
VERTEX
  8
51
 10
-0.2500
 20
-5.1000
 30
0.0000
  0
SEQEND
  8
0
  0
POLYLINE
  8
51
 66
1
 10
0.0000
 20
0.0000
 30
0.0000
 40
0.0635
 41
0.0635
 70
0
  0
VERTEX
  8
51
 10
-0.2818
 20
-5.1000
 30
0.0000
 42
1.0000
  0
VERTEX
  8
51
 10
-0.2182
 20
-5.1000
 30
0.0000
  0
SEQEND
  8
0
  0
POLYLINE
  8
51
 66
1
 10
0.0000
 20
0.0000
 30
0.0000
 40
0.0635
 41
0.0635
 70
0
  0
VERTEX
  8
51
 10
-0.2182
 20
5.2000
 30
0.0000
 42
1.0000
  0
VERTEX
  8
51
 10
-0.2818
 20
5.2000
 30
0.0000
  0
SEQEND
  8
0
  0
POLYLINE
  8
21
 66
1
 10
0.0000
 20
0.0000
 30
0.0000
 40
0.1270
 41
0.1270
 70
0
  0
VERTEX
  8
21
 10
42.0060
 20
-5.9944
 30
0.0000
  0
VERTEX
  8
21
 10
42.0060
 20
5.9898
 30
0.0000
  0
SEQEND
  8
0
  0
POLYLINE
  8
21
 66
1
 10
0.0000
 20
0.0000
 30
0.0000
 40
0.0635
 41
0.0635
 70
0
  0
VERTEX
  8
21
 10
42.0378
 20
5.9898
 30
0.0000
 42
1.0000
  0
VERTEX
  8
21
 10
41.9742
 20
5.9898
 30
0.0000
  0
SEQEND
  8
0
  0
POLYLINE
  8
21
 66
1
 10
0.0000
 20
0.0000
 30
0.0000
 40
0.0635
 41
0.0635
 70
0
  0
VERTEX
  8
21
 10
41.9742
 20
-5.9944
 30
0.0000
 42
1.0000
  0
VERTEX
  8
21
 10
42.0378
 20
-5.9944
 30
0.0000
  0
SEQEND
  8
0
  0
POLYLINE
  8
21
 66
1
 10
0.0000
 20
0.0000
 30
0.0000
 40
0.1270
 41
0.1270
 70
0
  0
VERTEX
  8
21
 10
25.5134
 20
-5.9944
 30
0.0000
  0
VERTEX
  8
21
 10
25.5134
 20
5.9998
 30
0.0000
  0
SEQEND
  8
0
  0
POLYLINE
  8
21
 66
1
 10
0.0000
 20
0.0000
 30
0.0000
 40
0.0635
 41
0.0635
 70
0
  0
VERTEX
  8
21
 10
25.5451
 20
5.9998
 30
0.0000
 42
1.0000
  0
VERTEX
  8
21
 10
25.4817
 20
5.9998
 30
0.0000
  0
SEQEND
  8
0
  0
POLYLINE
  8
21
 66
1
 10
0.0000
 20
0.0000
 30
0.0000
 40
0.0635
 41
0.0635
 70
0
  0
VERTEX
  8
21
 10
25.4817
 20
-5.9944
 30
0.0000
 42
1.0000
  0
VERTEX
  8
21
 10
25.5451
 20
-5.9944
 30
0.0000
  0
SEQEND
  8
0
  0
POLYLINE
  8
21
 66
1
 10
0.0000
 20
0.0000
 30
0.0000
 40
0.1270
 41
0.1270
 70
0
  0
VERTEX
  8
21
 10
25.5188
 20
-5.9998
 30
0.0000
  0
VERTEX
  8
21
 10
41.9960
 20
-5.9998
 30
0.0000
  0
SEQEND
  8
0
  0
POLYLINE
  8
21
 66
1
 10
0.0000
 20
0.0000
 30
0.0000
 40
0.0635
 41
0.0635
 70
0
  0
VERTEX
  8
21
 10
41.9960
 20
-6.0316
 30
0.0000
 42
1.0000
  0
VERTEX
  8
21
 10
41.9960
 20
-5.9681
 30
0.0000
  0
SEQEND
  8
0
  0
POLYLINE
  8
21
 66
1
 10
0.0000
 20
0.0000
 30
0.0000
 40
0.0635
 41
0.0635
 70
0
  0
VERTEX
  8
21
 10
25.5188
 20
-5.9681
 30
0.0000
 42
1.0000
  0
VERTEX
  8
21
 10
25.5188
 20
-6.0316
 30
0.0000
  0
SEQEND
  8
0
  0
POLYLINE
  8
21
 66
1
 10
0.0000
 20
0.0000
 30
0.0000
 40
0.1270
 41
0.1270
 70
0
  0
VERTEX
  8
21
 10
25.5242
 20
5.9998
 30
0.0000
  0
VERTEX
  8
21
 10
42.0006
 20
5.9998
 30
0.0000
  0
SEQEND
  8
0
  0
POLYLINE
  8
21
 66
1
 10
0.0000
 20
0.0000
 30
0.0000
 40
0.0635
 41
0.0635
 70
0
  0
VERTEX
  8
21
 10
42.0006
 20
5.9681
 30
0.0000
 42
1.0000
  0
VERTEX
  8
21
 10
42.0006
 20
6.0316
 30
0.0000
  0
SEQEND
  8
0
  0
POLYLINE
  8
21
 66
1
 10
0.0000
 20
0.0000
 30
0.0000
 40
0.0635
 41
0.0635
 70
0
  0
VERTEX
  8
21
 10
25.5242
 20
6.0316
 30
0.0000
 42
1.0000
  0
VERTEX
  8
21
 10
25.5242
 20
5.9681
 30
0.0000
  0
SEQEND
  8
0
  0
POLYLINE
  8
21
 66
1
 10
0.0000
 20
0.0000
 30
0.0000
 40
0.1270
 41
0.1270
 70
0
  0
VERTEX
  8
21
 10
25.5100
 20
-3.3000
 30
0.0000
  0
VERTEX
  8
21
 10
25.4000
 20
-3.3000
 30
0.0000
  0
SEQEND
  8
0
  0
POLYLINE
  8
21
 66
1
 10
0.0000
 20
0.0000
 30
0.0000
 40
0.0635
 41
0.0635
 70
0
  0
VERTEX
  8
21
 10
25.4000
 20
-3.2683
 30
0.0000
 42
1.0000
  0
VERTEX
  8
21
 10
25.4000
 20
-3.3318
 30
0.0000
  0
SEQEND
  8
0
  0
POLYLINE
  8
21
 66
1
 10
0.0000
 20
0.0000
 30
0.0000
 40
0.0635
 41
0.0635
 70
0
  0
VERTEX
  8
21
 10
25.5100
 20
-3.3318
 30
0.0000
 42
1.0000
  0
VERTEX
  8
21
 10
25.5100
 20
-3.2683
 30
0.0000
  0
SEQEND
  8
0
  0
POLYLINE
  8
21
 66
1
 10
0.0000
 20
0.0000
 30
0.0000
 40
0.1270
 41
0.1270
 70
0
  0
VERTEX
  8
21
 10
25.4000
 20
-3.3000
 30
0.0000
  0
VERTEX
  8
21
 10
25.4000
 20
3.3000
 30
0.0000
  0
SEQEND
  8
0
  0
POLYLINE
  8
21
 66
1
 10
0.0000
 20
0.0000
 30
0.0000
 40
0.0635
 41
0.0635
 70
0
  0
VERTEX
  8
21
 10
25.4318
 20
3.3000
 30
0.0000
 42
1.0000
  0
VERTEX
  8
21
 10
25.3683
 20
3.3000
 30
0.0000
  0
SEQEND
  8
0
  0
POLYLINE
  8
21
 66
1
 10
0.0000
 20
0.0000
 30
0.0000
 40
0.0635
 41
0.0635
 70
0
  0
VERTEX
  8
21
 10
25.3683
 20
-3.3000
 30
0.0000
 42
1.0000
  0
VERTEX
  8
21
 10
25.4318
 20
-3.3000
 30
0.0000
  0
SEQEND
  8
0
  0
POLYLINE
  8
21
 66
1
 10
0.0000
 20
0.0000
 30
0.0000
 40
0.1270
 41
0.1270
 70
0
  0
VERTEX
  8
21
 10
25.4000
 20
3.3000
 30
0.0000
  0
VERTEX
  8
21
 10
25.5100
 20
3.3000
 30
0.0000
  0
SEQEND
  8
0
  0
POLYLINE
  8
21
 66
1
 10
0.0000
 20
0.0000
 30
0.0000
 40
0.0635
 41
0.0635
 70
0
  0
VERTEX
  8
21
 10
25.5100
 20
3.2683
 30
0.0000
 42
1.0000
  0
VERTEX
  8
21
 10
25.5100
 20
3.3318
 30
0.0000
  0
SEQEND
  8
0
  0
POLYLINE
  8
21
 66
1
 10
0.0000
 20
0.0000
 30
0.0000
 40
0.0635
 41
0.0635
 70
0
  0
VERTEX
  8
21
 10
25.4000
 20
3.3318
 30
0.0000
 42
1.0000
  0
VERTEX
  8
21
 10
25.4000
 20
3.2683
 30
0.0000
  0
SEQEND
  8
0
  0
POLYLINE
  8
21
 66
1
 10
0.0000
 20
0.0000
 30
0.0000
 40
0.1524
 41
0.1524
 70
0
  0
VERTEX
  8
21
 10
8.5750
 20
6.7300
 30
0.0000
  0
VERTEX
  8
21
 10
7.3050
 20
6.7300
 30
0.0000
  0
SEQEND
  8
0
  0
POLYLINE
  8
21
 66
1
 10
0.0000
 20
0.0000
 30
0.0000
 40
0.0762
 41
0.0762
 70
0
  0
VERTEX
  8
21
 10
7.3050
 20
6.7681
 30
0.0000
 42
1.0000
  0
VERTEX
  8
21
 10
7.3050
 20
6.6919
 30
0.0000
  0
SEQEND
  8
0
  0
POLYLINE
  8
21
 66
1
 10
0.0000
 20
0.0000
 30
0.0000
 40
0.0762
 41
0.0762
 70
0
  0
VERTEX
  8
21
 10
8.5750
 20
6.6919
 30
0.0000
 42
1.0000
  0
VERTEX
  8
21
 10
8.5750
 20
6.7681
 30
0.0000
  0
SEQEND
  8
0
  0
POLYLINE
  8
21
 66
1
 10
0.0000
 20
0.0000
 30
0.0000
 40
0.1524
 41
0.1524
 70
0
  0
VERTEX
  8
21
 10
7.3050
 20
6.7300
 30
0.0000
  0
VERTEX
  8
21
 10
6.6700
 20
7.3650
 30
0.0000
  0
SEQEND
  8
0
  0
POLYLINE
  8
21
 66
1
 10
0.0000
 20
0.0000
 30
0.0000
 40
0.0762
 41
0.0762
 70
0
  0
VERTEX
  8
21
 10
6.6969
 20
7.3919
 30
0.0000
 42
1.0000
  0
VERTEX
  8
21
 10
6.6431
 20
7.3381
 30
0.0000
  0
SEQEND
  8
0
  0
POLYLINE
  8
21
 66
1
 10
0.0000
 20
0.0000
 30
0.0000
 40
0.0762
 41
0.0762
 70
0
  0
VERTEX
  8
21
 10
7.2781
 20
6.7031
 30
0.0000
 42
1.0000
  0
VERTEX
  8
21
 10
7.3319
 20
6.7569
 30
0.0000
  0
SEQEND
  8
0
  0
POLYLINE
  8
21
 66
1
 10
0.0000
 20
0.0000
 30
0.0000
 40
0.1524
 41
0.1524
 70
0
  0
VERTEX
  8
21
 10
6.6700
 20
7.3650
 30
0.0000
  0
VERTEX
  8
21
 10
6.6700
 20
8.6350
 30
0.0000
  0
SEQEND
  8
0
  0
POLYLINE
  8
21
 66
1
 10
0.0000
 20
0.0000
 30
0.0000
 40
0.0762
 41
0.0762
 70
0
  0
VERTEX
  8
21
 10
6.7081
 20
8.6350
 30
0.0000
 42
1.0000
  0
VERTEX
  8
21
 10
6.6319
 20
8.6350
 30
0.0000
  0
SEQEND
  8
0
  0
POLYLINE
  8
21
 66
1
 10
0.0000
 20
0.0000
 30
0.0000
 40
0.0762
 41
0.0762
 70
0
  0
VERTEX
  8
21
 10
6.6319
 20
7.3650
 30
0.0000
 42
1.0000
  0
VERTEX
  8
21
 10
6.7081
 20
7.3650
 30
0.0000
  0
SEQEND
  8
0
  0
POLYLINE
  8
21
 66
1
 10
0.0000
 20
0.0000
 30
0.0000
 40
0.1524
 41
0.1524
 70
0
  0
VERTEX
  8
21
 10
6.6700
 20
8.6350
 30
0.0000
  0
VERTEX
  8
21
 10
7.3050
 20
9.2700
 30
0.0000
  0
SEQEND
  8
0
  0
POLYLINE
  8
21
 66
1
 10
0.0000
 20
0.0000
 30
0.0000
 40
0.0762
 41
0.0762
 70
0
  0
VERTEX
  8
21
 10
7.3319
 20
9.2431
 30
0.0000
 42
1.0000
  0
VERTEX
  8
21
 10
7.2781
 20
9.2969
 30
0.0000
  0
SEQEND
  8
0
  0
POLYLINE
  8
21
 66
1
 10
0.0000
 20
0.0000
 30
0.0000
 40
0.0762
 41
0.0762
 70
0
  0
VERTEX
  8
21
 10
6.6431
 20
8.6619
 30
0.0000
 42
1.0000
  0
VERTEX
  8
21
 10
6.6969
 20
8.6081
 30
0.0000
  0
SEQEND
  8
0
  0
POLYLINE
  8
21
 66
1
 10
0.0000
 20
0.0000
 30
0.0000
 40
0.1524
 41
0.1524
 70
0
  0
VERTEX
  8
21
 10
6.6700
 20
7.3650
 30
0.0000
  0
VERTEX
  8
21
 10
6.0350
 20
6.7300
 30
0.0000
  0
SEQEND
  8
0
  0
POLYLINE
  8
21
 66
1
 10
0.0000
 20
0.0000
 30
0.0000
 40
0.0762
 41
0.0762
 70
0
  0
VERTEX
  8
21
 10
6.0081
 20
6.7569
 30
0.0000
 42
1.0000
  0
VERTEX
  8
21
 10
6.0619
 20
6.7031
 30
0.0000
  0
SEQEND
  8
0
  0
POLYLINE
  8
21
 66
1
 10
0.0000
 20
0.0000
 30
0.0000
 40
0.0762
 41
0.0762
 70
0
  0
VERTEX
  8
21
 10
6.6969
 20
7.3381
 30
0.0000
 42
1.0000
  0
VERTEX
  8
21
 10
6.6431
 20
7.3919
 30
0.0000
  0
SEQEND
  8
0
  0
POLYLINE
  8
21
 66
1
 10
0.0000
 20
0.0000
 30
0.0000
 40
0.1524
 41
0.1524
 70
0
  0
VERTEX
  8
21
 10
6.0350
 20
6.7300
 30
0.0000
  0
VERTEX
  8
21
 10
4.7650
 20
6.7300
 30
0.0000
  0
SEQEND
  8
0
  0
POLYLINE
  8
21
 66
1
 10
0.0000
 20
0.0000
 30
0.0000
 40
0.0762
 41
0.0762
 70
0
  0
VERTEX
  8
21
 10
4.7650
 20
6.7681
 30
0.0000
 42
1.0000
  0
VERTEX
  8
21
 10
4.7650
 20
6.6919
 30
0.0000
  0
SEQEND
  8
0
  0
POLYLINE
  8
21
 66
1
 10
0.0000
 20
0.0000
 30
0.0000
 40
0.0762
 41
0.0762
 70
0
  0
VERTEX
  8
21
 10
6.0350
 20
6.6919
 30
0.0000
 42
1.0000
  0
VERTEX
  8
21
 10
6.0350
 20
6.7681
 30
0.0000
  0
SEQEND
  8
0
  0
POLYLINE
  8
21
 66
1
 10
0.0000
 20
0.0000
 30
0.0000
 40
0.1524
 41
0.1524
 70
0
  0
VERTEX
  8
21
 10
4.7650
 20
6.7300
 30
0.0000
  0
VERTEX
  8
21
 10
4.1300
 20
7.3650
 30
0.0000
  0
SEQEND
  8
0
  0
POLYLINE
  8
21
 66
1
 10
0.0000
 20
0.0000
 30
0.0000
 40
0.0762
 41
0.0762
 70
0
  0
VERTEX
  8
21
 10
4.1569
 20
7.3919
 30
0.0000
 42
1.0000
  0
VERTEX
  8
21
 10
4.1031
 20
7.3381
 30
0.0000
  0
SEQEND
  8
0
  0
POLYLINE
  8
21
 66
1
 10
0.0000
 20
0.0000
 30
0.0000
 40
0.0762
 41
0.0762
 70
0
  0
VERTEX
  8
21
 10
4.7381
 20
6.7031
 30
0.0000
 42
1.0000
  0
VERTEX
  8
21
 10
4.7919
 20
6.7569
 30
0.0000
  0
SEQEND
  8
0
  0
POLYLINE
  8
21
 66
1
 10
0.0000
 20
0.0000
 30
0.0000
 40
0.1524
 41
0.1524
 70
0
  0
VERTEX
  8
21
 10
4.1300
 20
7.3650
 30
0.0000
  0
VERTEX
  8
21
 10
4.1300
 20
8.6350
 30
0.0000
  0
SEQEND
  8
0
  0
POLYLINE
  8
21
 66
1
 10
0.0000
 20
0.0000
 30
0.0000
 40
0.0762
 41
0.0762
 70
0
  0
VERTEX
  8
21
 10
4.1681
 20
8.6350
 30
0.0000
 42
1.0000
  0
VERTEX
  8
21
 10
4.0919
 20
8.6350
 30
0.0000
  0
SEQEND
  8
0
  0
POLYLINE
  8
21
 66
1
 10
0.0000
 20
0.0000
 30
0.0000
 40
0.0762
 41
0.0762
 70
0
  0
VERTEX
  8
21
 10
4.0919
 20
7.3650
 30
0.0000
 42
1.0000
  0
VERTEX
  8
21
 10
4.1681
 20
7.3650
 30
0.0000
  0
SEQEND
  8
0
  0
POLYLINE
  8
21
 66
1
 10
0.0000
 20
0.0000
 30
0.0000
 40
0.1524
 41
0.1524
 70
0
  0
VERTEX
  8
21
 10
4.1300
 20
8.6350
 30
0.0000
  0
VERTEX
  8
21
 10
4.7650
 20
9.2700
 30
0.0000
  0
SEQEND
  8
0
  0
POLYLINE
  8
21
 66
1
 10
0.0000
 20
0.0000
 30
0.0000
 40
0.0762
 41
0.0762
 70
0
  0
VERTEX
  8
21
 10
4.7919
 20
9.2431
 30
0.0000
 42
1.0000
  0
VERTEX
  8
21
 10
4.7381
 20
9.2969
 30
0.0000
  0
SEQEND
  8
0
  0
POLYLINE
  8
21
 66
1
 10
0.0000
 20
0.0000
 30
0.0000
 40
0.0762
 41
0.0762
 70
0
  0
VERTEX
  8
21
 10
4.1031
 20
8.6619
 30
0.0000
 42
1.0000
  0
VERTEX
  8
21
 10
4.1569
 20
8.6081
 30
0.0000
  0
SEQEND
  8
0
  0
POLYLINE
  8
21
 66
1
 10
0.0000
 20
0.0000
 30
0.0000
 40
0.1524
 41
0.1524
 70
0
  0
VERTEX
  8
21
 10
4.7650
 20
9.2700
 30
0.0000
  0
VERTEX
  8
21
 10
6.0350
 20
9.2700
 30
0.0000
  0
SEQEND
  8
0
  0
POLYLINE
  8
21
 66
1
 10
0.0000
 20
0.0000
 30
0.0000
 40
0.0762
 41
0.0762
 70
0
  0
VERTEX
  8
21
 10
6.0350
 20
9.2319
 30
0.0000
 42
1.0000
  0
VERTEX
  8
21
 10
6.0350
 20
9.3081
 30
0.0000
  0
SEQEND
  8
0
  0
POLYLINE
  8
21
 66
1
 10
0.0000
 20
0.0000
 30
0.0000
 40
0.0762
 41
0.0762
 70
0
  0
VERTEX
  8
21
 10
4.7650
 20
9.3081
 30
0.0000
 42
1.0000
  0
VERTEX
  8
21
 10
4.7650
 20
9.2319
 30
0.0000
  0
SEQEND
  8
0
  0
POLYLINE
  8
21
 66
1
 10
0.0000
 20
0.0000
 30
0.0000
 40
0.1524
 41
0.1524
 70
0
  0
VERTEX
  8
21
 10
6.0350
 20
9.2700
 30
0.0000
  0
VERTEX
  8
21
 10
6.6700
 20
8.6350
 30
0.0000
  0
SEQEND
  8
0
  0
POLYLINE
  8
21
 66
1
 10
0.0000
 20
0.0000
 30
0.0000
 40
0.0762
 41
0.0762
 70
0
  0
VERTEX
  8
21
 10
6.6431
 20
8.6081
 30
0.0000
 42
1.0000
  0
VERTEX
  8
21
 10
6.6969
 20
8.6619
 30
0.0000
  0
SEQEND
  8
0
  0
POLYLINE
  8
21
 66
1
 10
0.0000
 20
0.0000
 30
0.0000
 40
0.0762
 41
0.0762
 70
0
  0
VERTEX
  8
21
 10
6.0619
 20
9.2969
 30
0.0000
 42
1.0000
  0
VERTEX
  8
21
 10
6.0081
 20
9.2431
 30
0.0000
  0
SEQEND
  8
0
  0
POLYLINE
  8
21
 66
1
 10
0.0000
 20
0.0000
 30
0.0000
 40
0.1524
 41
0.1524
 70
0
  0
VERTEX
  8
21
 10
9.2100
 20
7.3650
 30
0.0000
  0
VERTEX
  8
21
 10
9.2100
 20
8.6350
 30
0.0000
  0
SEQEND
  8
0
  0
POLYLINE
  8
21
 66
1
 10
0.0000
 20
0.0000
 30
0.0000
 40
0.0762
 41
0.0762
 70
0
  0
VERTEX
  8
21
 10
9.2481
 20
8.6350
 30
0.0000
 42
1.0000
  0
VERTEX
  8
21
 10
9.1719
 20
8.6350
 30
0.0000
  0
SEQEND
  8
0
  0
POLYLINE
  8
21
 66
1
 10
0.0000
 20
0.0000
 30
0.0000
 40
0.0762
 41
0.0762
 70
0
  0
VERTEX
  8
21
 10
9.1719
 20
7.3650
 30
0.0000
 42
1.0000
  0
VERTEX
  8
21
 10
9.2481
 20
7.3650
 30
0.0000
  0
SEQEND
  8
0
  0
POLYLINE
  8
21
 66
1
 10
0.0000
 20
0.0000
 30
0.0000
 40
0.1524
 41
0.1524
 70
0
  0
VERTEX
  8
21
 10
8.5750
 20
6.7300
 30
0.0000
  0
VERTEX
  8
21
 10
9.2100
 20
7.3650
 30
0.0000
  0
SEQEND
  8
0
  0
POLYLINE
  8
21
 66
1
 10
0.0000
 20
0.0000
 30
0.0000
 40
0.0762
 41
0.0762
 70
0
  0
VERTEX
  8
21
 10
9.2369
 20
7.3381
 30
0.0000
 42
1.0000
  0
VERTEX
  8
21
 10
9.1831
 20
7.3919
 30
0.0000
  0
SEQEND
  8
0
  0
POLYLINE
  8
21
 66
1
 10
0.0000
 20
0.0000
 30
0.0000
 40
0.0762
 41
0.0762
 70
0
  0
VERTEX
  8
21
 10
8.5481
 20
6.7569
 30
0.0000
 42
1.0000
  0
VERTEX
  8
21
 10
8.6019
 20
6.7031
 30
0.0000
  0
SEQEND
  8
0
  0
POLYLINE
  8
21
 66
1
 10
0.0000
 20
0.0000
 30
0.0000
 40
0.1524
 41
0.1524
 70
0
  0
VERTEX
  8
21
 10
9.2100
 20
8.6350
 30
0.0000
  0
VERTEX
  8
21
 10
8.5750
 20
9.2700
 30
0.0000
  0
SEQEND
  8
0
  0
POLYLINE
  8
21
 66
1
 10
0.0000
 20
0.0000
 30
0.0000
 40
0.0762
 41
0.0762
 70
0
  0
VERTEX
  8
21
 10
8.6019
 20
9.2969
 30
0.0000
 42
1.0000
  0
VERTEX
  8
21
 10
8.5481
 20
9.2431
 30
0.0000
  0
SEQEND
  8
0
  0
POLYLINE
  8
21
 66
1
 10
0.0000
 20
0.0000
 30
0.0000
 40
0.0762
 41
0.0762
 70
0
  0
VERTEX
  8
21
 10
9.1831
 20
8.6081
 30
0.0000
 42
1.0000
  0
VERTEX
  8
21
 10
9.2369
 20
8.6619
 30
0.0000
  0
SEQEND
  8
0
  0
POLYLINE
  8
21
 66
1
 10
0.0000
 20
0.0000
 30
0.0000
 40
0.1524
 41
0.1524
 70
0
  0
VERTEX
  8
21
 10
7.3050
 20
9.2700
 30
0.0000
  0
VERTEX
  8
21
 10
8.5750
 20
9.2700
 30
0.0000
  0
SEQEND
  8
0
  0
POLYLINE
  8
21
 66
1
 10
0.0000
 20
0.0000
 30
0.0000
 40
0.0762
 41
0.0762
 70
0
  0
VERTEX
  8
21
 10
8.5750
 20
9.2319
 30
0.0000
 42
1.0000
  0
VERTEX
  8
21
 10
8.5750
 20
9.3081
 30
0.0000
  0
SEQEND
  8
0
  0
POLYLINE
  8
21
 66
1
 10
0.0000
 20
0.0000
 30
0.0000
 40
0.0762
 41
0.0762
 70
0
  0
VERTEX
  8
21
 10
7.3050
 20
9.3081
 30
0.0000
 42
1.0000
  0
VERTEX
  8
21
 10
7.3050
 20
9.2319
 30
0.0000
  0
SEQEND
  8
0
  0
POLYLINE
  8
21
 66
1
 10
0.0000
 20
0.0000
 30
0.0000
 40
0.1524
 41
0.1524
 70
0
  0
VERTEX
  8
21
 10
4.1300
 20
7.3650
 30
0.0000
  0
VERTEX
  8
21
 10
3.4950
 20
6.7300
 30
0.0000
  0
SEQEND
  8
0
  0
POLYLINE
  8
21
 66
1
 10
0.0000
 20
0.0000
 30
0.0000
 40
0.0762
 41
0.0762
 70
0
  0
VERTEX
  8
21
 10
3.4681
 20
6.7569
 30
0.0000
 42
1.0000
  0
VERTEX
  8
21
 10
3.5219
 20
6.7031
 30
0.0000
  0
SEQEND
  8
0
  0
POLYLINE
  8
21
 66
1
 10
0.0000
 20
0.0000
 30
0.0000
 40
0.0762
 41
0.0762
 70
0
  0
VERTEX
  8
21
 10
4.1569
 20
7.3381
 30
0.0000
 42
1.0000
  0
VERTEX
  8
21
 10
4.1031
 20
7.3919
 30
0.0000
  0
SEQEND
  8
0
  0
POLYLINE
  8
21
 66
1
 10
0.0000
 20
0.0000
 30
0.0000
 40
0.1524
 41
0.1524
 70
0
  0
VERTEX
  8
21
 10
3.4950
 20
6.7300
 30
0.0000
  0
VERTEX
  8
21
 10
2.2250
 20
6.7300
 30
0.0000
  0
SEQEND
  8
0
  0
POLYLINE
  8
21
 66
1
 10
0.0000
 20
0.0000
 30
0.0000
 40
0.0762
 41
0.0762
 70
0
  0
VERTEX
  8
21
 10
2.2250
 20
6.7681
 30
0.0000
 42
1.0000
  0
VERTEX
  8
21
 10
2.2250
 20
6.6919
 30
0.0000
  0
SEQEND
  8
0
  0
POLYLINE
  8
21
 66
1
 10
0.0000
 20
0.0000
 30
0.0000
 40
0.0762
 41
0.0762
 70
0
  0
VERTEX
  8
21
 10
3.4950
 20
6.6919
 30
0.0000
 42
1.0000
  0
VERTEX
  8
21
 10
3.4950
 20
6.7681
 30
0.0000
  0
SEQEND
  8
0
  0
POLYLINE
  8
21
 66
1
 10
0.0000
 20
0.0000
 30
0.0000
 40
0.1524
 41
0.1524
 70
0
  0
VERTEX
  8
21
 10
2.2250
 20
6.7300
 30
0.0000
  0
VERTEX
  8
21
 10
1.5900
 20
7.3650
 30
0.0000
  0
SEQEND
  8
0
  0
POLYLINE
  8
21
 66
1
 10
0.0000
 20
0.0000
 30
0.0000
 40
0.0762
 41
0.0762
 70
0
  0
VERTEX
  8
21
 10
1.6169
 20
7.3919
 30
0.0000
 42
1.0000
  0
VERTEX
  8
21
 10
1.5631
 20
7.3381
 30
0.0000
  0
SEQEND
  8
0
  0
POLYLINE
  8
21
 66
1
 10
0.0000
 20
0.0000
 30
0.0000
 40
0.0762
 41
0.0762
 70
0
  0
VERTEX
  8
21
 10
2.1981
 20
6.7031
 30
0.0000
 42
1.0000
  0
VERTEX
  8
21
 10
2.2519
 20
6.7569
 30
0.0000
  0
SEQEND
  8
0
  0
POLYLINE
  8
21
 66
1
 10
0.0000
 20
0.0000
 30
0.0000
 40
0.1524
 41
0.1524
 70
0
  0
VERTEX
  8
21
 10
1.5900
 20
7.3650
 30
0.0000
  0
VERTEX
  8
21
 10
1.5900
 20
8.6350
 30
0.0000
  0
SEQEND
  8
0
  0
POLYLINE
  8
21
 66
1
 10
0.0000
 20
0.0000
 30
0.0000
 40
0.0762
 41
0.0762
 70
0
  0
VERTEX
  8
21
 10
1.6281
 20
8.6350
 30
0.0000
 42
1.0000
  0
VERTEX
  8
21
 10
1.5519
 20
8.6350
 30
0.0000
  0
SEQEND
  8
0
  0
POLYLINE
  8
21
 66
1
 10
0.0000
 20
0.0000
 30
0.0000
 40
0.0762
 41
0.0762
 70
0
  0
VERTEX
  8
21
 10
1.5519
 20
7.3650
 30
0.0000
 42
1.0000
  0
VERTEX
  8
21
 10
1.6281
 20
7.3650
 30
0.0000
  0
SEQEND
  8
0
  0
POLYLINE
  8
21
 66
1
 10
0.0000
 20
0.0000
 30
0.0000
 40
0.1524
 41
0.1524
 70
0
  0
VERTEX
  8
21
 10
1.5900
 20
8.6350
 30
0.0000
  0
VERTEX
  8
21
 10
2.2250
 20
9.2700
 30
0.0000
  0
SEQEND
  8
0
  0
POLYLINE
  8
21
 66
1
 10
0.0000
 20
0.0000
 30
0.0000
 40
0.0762
 41
0.0762
 70
0
  0
VERTEX
  8
21
 10
2.2519
 20
9.2431
 30
0.0000
 42
1.0000
  0
VERTEX
  8
21
 10
2.1981
 20
9.2969
 30
0.0000
  0
SEQEND
  8
0
  0
POLYLINE
  8
21
 66
1
 10
0.0000
 20
0.0000
 30
0.0000
 40
0.0762
 41
0.0762
 70
0
  0
VERTEX
  8
21
 10
1.5631
 20
8.6619
 30
0.0000
 42
1.0000
  0
VERTEX
  8
21
 10
1.6169
 20
8.6081
 30
0.0000
  0
SEQEND
  8
0
  0
POLYLINE
  8
21
 66
1
 10
0.0000
 20
0.0000
 30
0.0000
 40
0.1524
 41
0.1524
 70
0
  0
VERTEX
  8
21
 10
2.2250
 20
9.2700
 30
0.0000
  0
VERTEX
  8
21
 10
3.4950
 20
9.2700
 30
0.0000
  0
SEQEND
  8
0
  0
POLYLINE
  8
21
 66
1
 10
0.0000
 20
0.0000
 30
0.0000
 40
0.0762
 41
0.0762
 70
0
  0
VERTEX
  8
21
 10
3.4950
 20
9.2319
 30
0.0000
 42
1.0000
  0
VERTEX
  8
21
 10
3.4950
 20
9.3081
 30
0.0000
  0
SEQEND
  8
0
  0
POLYLINE
  8
21
 66
1
 10
0.0000
 20
0.0000
 30
0.0000
 40
0.0762
 41
0.0762
 70
0
  0
VERTEX
  8
21
 10
2.2250
 20
9.3081
 30
0.0000
 42
1.0000
  0
VERTEX
  8
21
 10
2.2250
 20
9.2319
 30
0.0000
  0
SEQEND
  8
0
  0
POLYLINE
  8
21
 66
1
 10
0.0000
 20
0.0000
 30
0.0000
 40
0.1524
 41
0.1524
 70
0
  0
VERTEX
  8
21
 10
3.4950
 20
9.2700
 30
0.0000
  0
VERTEX
  8
21
 10
4.1300
 20
8.6350
 30
0.0000
  0
SEQEND
  8
0
  0
POLYLINE
  8
21
 66
1
 10
0.0000
 20
0.0000
 30
0.0000
 40
0.0762
 41
0.0762
 70
0
  0
VERTEX
  8
21
 10
4.1031
 20
8.6081
 30
0.0000
 42
1.0000
  0
VERTEX
  8
21
 10
4.1569
 20
8.6619
 30
0.0000
  0
SEQEND
  8
0
  0
POLYLINE
  8
21
 66
1
 10
0.0000
 20
0.0000
 30
0.0000
 40
0.0762
 41
0.0762
 70
0
  0
VERTEX
  8
21
 10
3.5219
 20
9.2969
 30
0.0000
 42
1.0000
  0
VERTEX
  8
21
 10
3.4681
 20
9.2431
 30
0.0000
  0
SEQEND
  8
0
  0
INSERT
  8
51
  2
RECT
 10
5.4000
 20
8.0000
 30
0.0000
 41
0.6000
 42
0.6000
 43
1.0000
 50
180.0000
  0
INSERT
  8
51
  2
RECT
 10
7.9400
 20
8.0000
 30
0.0000
 41
0.6000
 42
0.6000
 43
1.0000
 50
180.0000
  0
INSERT
  8
51
  2
RECT
 10
2.8600
 20
8.0000
 30
0.0000
 41
0.6000
 42
0.6000
 43
1.0000
 50
180.0000
  0
POLYLINE
  8
21
 66
1
 10
0.0000
 20
0.0000
 30
0.0000
 40
0.1524
 41
0.1524
 70
0
  0
VERTEX
  8
21
 10
8.5750
 20
-9.2700
 30
0.0000
  0
VERTEX
  8
21
 10
7.3050
 20
-9.2700
 30
0.0000
  0
SEQEND
  8
0
  0
POLYLINE
  8
21
 66
1
 10
0.0000
 20
0.0000
 30
0.0000
 40
0.0762
 41
0.0762
 70
0
  0
VERTEX
  8
21
 10
7.3050
 20
-9.2319
 30
0.0000
 42
1.0000
  0
VERTEX
  8
21
 10
7.3050
 20
-9.3081
 30
0.0000
  0
SEQEND
  8
0
  0
POLYLINE
  8
21
 66
1
 10
0.0000
 20
0.0000
 30
0.0000
 40
0.0762
 41
0.0762
 70
0
  0
VERTEX
  8
21
 10
8.5750
 20
-9.3081
 30
0.0000
 42
1.0000
  0
VERTEX
  8
21
 10
8.5750
 20
-9.2319
 30
0.0000
  0
SEQEND
  8
0
  0
POLYLINE
  8
21
 66
1
 10
0.0000
 20
0.0000
 30
0.0000
 40
0.1524
 41
0.1524
 70
0
  0
VERTEX
  8
21
 10
7.3050
 20
-9.2700
 30
0.0000
  0
VERTEX
  8
21
 10
6.6700
 20
-8.6350
 30
0.0000
  0
SEQEND
  8
0
  0
POLYLINE
  8
21
 66
1
 10
0.0000
 20
0.0000
 30
0.0000
 40
0.0762
 41
0.0762
 70
0
  0
VERTEX
  8
21
 10
6.6969
 20
-8.6081
 30
0.0000
 42
1.0000
  0
VERTEX
  8
21
 10
6.6431
 20
-8.6619
 30
0.0000
  0
SEQEND
  8
0
  0
POLYLINE
  8
21
 66
1
 10
0.0000
 20
0.0000
 30
0.0000
 40
0.0762
 41
0.0762
 70
0
  0
VERTEX
  8
21
 10
7.2781
 20
-9.2969
 30
0.0000
 42
1.0000
  0
VERTEX
  8
21
 10
7.3319
 20
-9.2431
 30
0.0000
  0
SEQEND
  8
0
  0
POLYLINE
  8
21
 66
1
 10
0.0000
 20
0.0000
 30
0.0000
 40
0.1524
 41
0.1524
 70
0
  0
VERTEX
  8
21
 10
6.6700
 20
-8.6350
 30
0.0000
  0
VERTEX
  8
21
 10
6.6700
 20
-7.3650
 30
0.0000
  0
SEQEND
  8
0
  0
POLYLINE
  8
21
 66
1
 10
0.0000
 20
0.0000
 30
0.0000
 40
0.0762
 41
0.0762
 70
0
  0
VERTEX
  8
21
 10
6.7081
 20
-7.3650
 30
0.0000
 42
1.0000
  0
VERTEX
  8
21
 10
6.6319
 20
-7.3650
 30
0.0000
  0
SEQEND
  8
0
  0
POLYLINE
  8
21
 66
1
 10
0.0000
 20
0.0000
 30
0.0000
 40
0.0762
 41
0.0762
 70
0
  0
VERTEX
  8
21
 10
6.6319
 20
-8.6350
 30
0.0000
 42
1.0000
  0
VERTEX
  8
21
 10
6.7081
 20
-8.6350
 30
0.0000
  0
SEQEND
  8
0
  0
POLYLINE
  8
21
 66
1
 10
0.0000
 20
0.0000
 30
0.0000
 40
0.1524
 41
0.1524
 70
0
  0
VERTEX
  8
21
 10
6.6700
 20
-7.3650
 30
0.0000
  0
VERTEX
  8
21
 10
7.3050
 20
-6.7300
 30
0.0000
  0
SEQEND
  8
0
  0
POLYLINE
  8
21
 66
1
 10
0.0000
 20
0.0000
 30
0.0000
 40
0.0762
 41
0.0762
 70
0
  0
VERTEX
  8
21
 10
7.3319
 20
-6.7569
 30
0.0000
 42
1.0000
  0
VERTEX
  8
21
 10
7.2781
 20
-6.7031
 30
0.0000
  0
SEQEND
  8
0
  0
POLYLINE
  8
21
 66
1
 10
0.0000
 20
0.0000
 30
0.0000
 40
0.0762
 41
0.0762
 70
0
  0
VERTEX
  8
21
 10
6.6431
 20
-7.3381
 30
0.0000
 42
1.0000
  0
VERTEX
  8
21
 10
6.6969
 20
-7.3919
 30
0.0000
  0
SEQEND
  8
0
  0
POLYLINE
  8
21
 66
1
 10
0.0000
 20
0.0000
 30
0.0000
 40
0.1524
 41
0.1524
 70
0
  0
VERTEX
  8
21
 10
6.6700
 20
-8.6350
 30
0.0000
  0
VERTEX
  8
21
 10
6.0350
 20
-9.2700
 30
0.0000
  0
SEQEND
  8
0
  0
POLYLINE
  8
21
 66
1
 10
0.0000
 20
0.0000
 30
0.0000
 40
0.0762
 41
0.0762
 70
0
  0
VERTEX
  8
21
 10
6.0081
 20
-9.2431
 30
0.0000
 42
1.0000
  0
VERTEX
  8
21
 10
6.0619
 20
-9.2969
 30
0.0000
  0
SEQEND
  8
0
  0
POLYLINE
  8
21
 66
1
 10
0.0000
 20
0.0000
 30
0.0000
 40
0.0762
 41
0.0762
 70
0
  0
VERTEX
  8
21
 10
6.6969
 20
-8.6619
 30
0.0000
 42
1.0000
  0
VERTEX
  8
21
 10
6.6431
 20
-8.6081
 30
0.0000
  0
SEQEND
  8
0
  0
POLYLINE
  8
21
 66
1
 10
0.0000
 20
0.0000
 30
0.0000
 40
0.1524
 41
0.1524
 70
0
  0
VERTEX
  8
21
 10
6.0350
 20
-9.2700
 30
0.0000
  0
VERTEX
  8
21
 10
4.7650
 20
-9.2700
 30
0.0000
  0
SEQEND
  8
0
  0
POLYLINE
  8
21
 66
1
 10
0.0000
 20
0.0000
 30
0.0000
 40
0.0762
 41
0.0762
 70
0
  0
VERTEX
  8
21
 10
4.7650
 20
-9.2319
 30
0.0000
 42
1.0000
  0
VERTEX
  8
21
 10
4.7650
 20
-9.3081
 30
0.0000
  0
SEQEND
  8
0
  0
POLYLINE
  8
21
 66
1
 10
0.0000
 20
0.0000
 30
0.0000
 40
0.0762
 41
0.0762
 70
0
  0
VERTEX
  8
21
 10
6.0350
 20
-9.3081
 30
0.0000
 42
1.0000
  0
VERTEX
  8
21
 10
6.0350
 20
-9.2319
 30
0.0000
  0
SEQEND
  8
0
  0
POLYLINE
  8
21
 66
1
 10
0.0000
 20
0.0000
 30
0.0000
 40
0.1524
 41
0.1524
 70
0
  0
VERTEX
  8
21
 10
4.7650
 20
-9.2700
 30
0.0000
  0
VERTEX
  8
21
 10
4.1300
 20
-8.6350
 30
0.0000
  0
SEQEND
  8
0
  0
POLYLINE
  8
21
 66
1
 10
0.0000
 20
0.0000
 30
0.0000
 40
0.0762
 41
0.0762
 70
0
  0
VERTEX
  8
21
 10
4.1569
 20
-8.6081
 30
0.0000
 42
1.0000
  0
VERTEX
  8
21
 10
4.1031
 20
-8.6619
 30
0.0000
  0
SEQEND
  8
0
  0
POLYLINE
  8
21
 66
1
 10
0.0000
 20
0.0000
 30
0.0000
 40
0.0762
 41
0.0762
 70
0
  0
VERTEX
  8
21
 10
4.7381
 20
-9.2969
 30
0.0000
 42
1.0000
  0
VERTEX
  8
21
 10
4.7919
 20
-9.2431
 30
0.0000
  0
SEQEND
  8
0
  0
POLYLINE
  8
21
 66
1
 10
0.0000
 20
0.0000
 30
0.0000
 40
0.1524
 41
0.1524
 70
0
  0
VERTEX
  8
21
 10
4.1300
 20
-8.6350
 30
0.0000
  0
VERTEX
  8
21
 10
4.1300
 20
-7.3650
 30
0.0000
  0
SEQEND
  8
0
  0
POLYLINE
  8
21
 66
1
 10
0.0000
 20
0.0000
 30
0.0000
 40
0.0762
 41
0.0762
 70
0
  0
VERTEX
  8
21
 10
4.1681
 20
-7.3650
 30
0.0000
 42
1.0000
  0
VERTEX
  8
21
 10
4.0919
 20
-7.3650
 30
0.0000
  0
SEQEND
  8
0
  0
POLYLINE
  8
21
 66
1
 10
0.0000
 20
0.0000
 30
0.0000
 40
0.0762
 41
0.0762
 70
0
  0
VERTEX
  8
21
 10
4.0919
 20
-8.6350
 30
0.0000
 42
1.0000
  0
VERTEX
  8
21
 10
4.1681
 20
-8.6350
 30
0.0000
  0
SEQEND
  8
0
  0
POLYLINE
  8
21
 66
1
 10
0.0000
 20
0.0000
 30
0.0000
 40
0.1524
 41
0.1524
 70
0
  0
VERTEX
  8
21
 10
4.1300
 20
-7.3650
 30
0.0000
  0
VERTEX
  8
21
 10
4.7650
 20
-6.7300
 30
0.0000
  0
SEQEND
  8
0
  0
POLYLINE
  8
21
 66
1
 10
0.0000
 20
0.0000
 30
0.0000
 40
0.0762
 41
0.0762
 70
0
  0
VERTEX
  8
21
 10
4.7919
 20
-6.7569
 30
0.0000
 42
1.0000
  0
VERTEX
  8
21
 10
4.7381
 20
-6.7031
 30
0.0000
  0
SEQEND
  8
0
  0
POLYLINE
  8
21
 66
1
 10
0.0000
 20
0.0000
 30
0.0000
 40
0.0762
 41
0.0762
 70
0
  0
VERTEX
  8
21
 10
4.1031
 20
-7.3381
 30
0.0000
 42
1.0000
  0
VERTEX
  8
21
 10
4.1569
 20
-7.3919
 30
0.0000
  0
SEQEND
  8
0
  0
POLYLINE
  8
21
 66
1
 10
0.0000
 20
0.0000
 30
0.0000
 40
0.1524
 41
0.1524
 70
0
  0
VERTEX
  8
21
 10
4.7650
 20
-6.7300
 30
0.0000
  0
VERTEX
  8
21
 10
6.0350
 20
-6.7300
 30
0.0000
  0
SEQEND
  8
0
  0
POLYLINE
  8
21
 66
1
 10
0.0000
 20
0.0000
 30
0.0000
 40
0.0762
 41
0.0762
 70
0
  0
VERTEX
  8
21
 10
6.0350
 20
-6.7681
 30
0.0000
 42
1.0000
  0
VERTEX
  8
21
 10
6.0350
 20
-6.6919
 30
0.0000
  0
SEQEND
  8
0
  0
POLYLINE
  8
21
 66
1
 10
0.0000
 20
0.0000
 30
0.0000
 40
0.0762
 41
0.0762
 70
0
  0
VERTEX
  8
21
 10
4.7650
 20
-6.6919
 30
0.0000
 42
1.0000
  0
VERTEX
  8
21
 10
4.7650
 20
-6.7681
 30
0.0000
  0
SEQEND
  8
0
  0
POLYLINE
  8
21
 66
1
 10
0.0000
 20
0.0000
 30
0.0000
 40
0.1524
 41
0.1524
 70
0
  0
VERTEX
  8
21
 10
6.0350
 20
-6.7300
 30
0.0000
  0
VERTEX
  8
21
 10
6.6700
 20
-7.3650
 30
0.0000
  0
SEQEND
  8
0
  0
POLYLINE
  8
21
 66
1
 10
0.0000
 20
0.0000
 30
0.0000
 40
0.0762
 41
0.0762
 70
0
  0
VERTEX
  8
21
 10
6.6431
 20
-7.3919
 30
0.0000
 42
1.0000
  0
VERTEX
  8
21
 10
6.6969
 20
-7.3381
 30
0.0000
  0
SEQEND
  8
0
  0
POLYLINE
  8
21
 66
1
 10
0.0000
 20
0.0000
 30
0.0000
 40
0.0762
 41
0.0762
 70
0
  0
VERTEX
  8
21
 10
6.0619
 20
-6.7031
 30
0.0000
 42
1.0000
  0
VERTEX
  8
21
 10
6.0081
 20
-6.7569
 30
0.0000
  0
SEQEND
  8
0
  0
POLYLINE
  8
21
 66
1
 10
0.0000
 20
0.0000
 30
0.0000
 40
0.1524
 41
0.1524
 70
0
  0
VERTEX
  8
21
 10
9.2100
 20
-8.6350
 30
0.0000
  0
VERTEX
  8
21
 10
9.2100
 20
-7.3650
 30
0.0000
  0
SEQEND
  8
0
  0
POLYLINE
  8
21
 66
1
 10
0.0000
 20
0.0000
 30
0.0000
 40
0.0762
 41
0.0762
 70
0
  0
VERTEX
  8
21
 10
9.2481
 20
-7.3650
 30
0.0000
 42
1.0000
  0
VERTEX
  8
21
 10
9.1719
 20
-7.3650
 30
0.0000
  0
SEQEND
  8
0
  0
POLYLINE
  8
21
 66
1
 10
0.0000
 20
0.0000
 30
0.0000
 40
0.0762
 41
0.0762
 70
0
  0
VERTEX
  8
21
 10
9.1719
 20
-8.6350
 30
0.0000
 42
1.0000
  0
VERTEX
  8
21
 10
9.2481
 20
-8.6350
 30
0.0000
  0
SEQEND
  8
0
  0
POLYLINE
  8
21
 66
1
 10
0.0000
 20
0.0000
 30
0.0000
 40
0.1524
 41
0.1524
 70
0
  0
VERTEX
  8
21
 10
8.5750
 20
-9.2700
 30
0.0000
  0
VERTEX
  8
21
 10
9.2100
 20
-8.6350
 30
0.0000
  0
SEQEND
  8
0
  0
POLYLINE
  8
21
 66
1
 10
0.0000
 20
0.0000
 30
0.0000
 40
0.0762
 41
0.0762
 70
0
  0
VERTEX
  8
21
 10
9.2369
 20
-8.6619
 30
0.0000
 42
1.0000
  0
VERTEX
  8
21
 10
9.1831
 20
-8.6081
 30
0.0000
  0
SEQEND
  8
0
  0
POLYLINE
  8
21
 66
1
 10
0.0000
 20
0.0000
 30
0.0000
 40
0.0762
 41
0.0762
 70
0
  0
VERTEX
  8
21
 10
8.5481
 20
-9.2431
 30
0.0000
 42
1.0000
  0
VERTEX
  8
21
 10
8.6019
 20
-9.2969
 30
0.0000
  0
SEQEND
  8
0
  0
POLYLINE
  8
21
 66
1
 10
0.0000
 20
0.0000
 30
0.0000
 40
0.1524
 41
0.1524
 70
0
  0
VERTEX
  8
21
 10
9.2100
 20
-7.3650
 30
0.0000
  0
VERTEX
  8
21
 10
8.5750
 20
-6.7300
 30
0.0000
  0
SEQEND
  8
0
  0
POLYLINE
  8
21
 66
1
 10
0.0000
 20
0.0000
 30
0.0000
 40
0.0762
 41
0.0762
 70
0
  0
VERTEX
  8
21
 10
8.6019
 20
-6.7031
 30
0.0000
 42
1.0000
  0
VERTEX
  8
21
 10
8.5481
 20
-6.7569
 30
0.0000
  0
SEQEND
  8
0
  0
POLYLINE
  8
21
 66
1
 10
0.0000
 20
0.0000
 30
0.0000
 40
0.0762
 41
0.0762
 70
0
  0
VERTEX
  8
21
 10
9.1831
 20
-7.3919
 30
0.0000
 42
1.0000
  0
VERTEX
  8
21
 10
9.2369
 20
-7.3381
 30
0.0000
  0
SEQEND
  8
0
  0
POLYLINE
  8
21
 66
1
 10
0.0000
 20
0.0000
 30
0.0000
 40
0.1524
 41
0.1524
 70
0
  0
VERTEX
  8
21
 10
7.3050
 20
-6.7300
 30
0.0000
  0
VERTEX
  8
21
 10
8.5750
 20
-6.7300
 30
0.0000
  0
SEQEND
  8
0
  0
POLYLINE
  8
21
 66
1
 10
0.0000
 20
0.0000
 30
0.0000
 40
0.0762
 41
0.0762
 70
0
  0
VERTEX
  8
21
 10
8.5750
 20
-6.7681
 30
0.0000
 42
1.0000
  0
VERTEX
  8
21
 10
8.5750
 20
-6.6919
 30
0.0000
  0
SEQEND
  8
0
  0
POLYLINE
  8
21
 66
1
 10
0.0000
 20
0.0000
 30
0.0000
 40
0.0762
 41
0.0762
 70
0
  0
VERTEX
  8
21
 10
7.3050
 20
-6.6919
 30
0.0000
 42
1.0000
  0
VERTEX
  8
21
 10
7.3050
 20
-6.7681
 30
0.0000
  0
SEQEND
  8
0
  0
POLYLINE
  8
21
 66
1
 10
0.0000
 20
0.0000
 30
0.0000
 40
0.1524
 41
0.1524
 70
0
  0
VERTEX
  8
21
 10
4.1300
 20
-8.6350
 30
0.0000
  0
VERTEX
  8
21
 10
3.4950
 20
-9.2700
 30
0.0000
  0
SEQEND
  8
0
  0
POLYLINE
  8
21
 66
1
 10
0.0000
 20
0.0000
 30
0.0000
 40
0.0762
 41
0.0762
 70
0
  0
VERTEX
  8
21
 10
3.4681
 20
-9.2431
 30
0.0000
 42
1.0000
  0
VERTEX
  8
21
 10
3.5219
 20
-9.2969
 30
0.0000
  0
SEQEND
  8
0
  0
POLYLINE
  8
21
 66
1
 10
0.0000
 20
0.0000
 30
0.0000
 40
0.0762
 41
0.0762
 70
0
  0
VERTEX
  8
21
 10
4.1569
 20
-8.6619
 30
0.0000
 42
1.0000
  0
VERTEX
  8
21
 10
4.1031
 20
-8.6081
 30
0.0000
  0
SEQEND
  8
0
  0
POLYLINE
  8
21
 66
1
 10
0.0000
 20
0.0000
 30
0.0000
 40
0.1524
 41
0.1524
 70
0
  0
VERTEX
  8
21
 10
3.4950
 20
-9.2700
 30
0.0000
  0
VERTEX
  8
21
 10
2.2250
 20
-9.2700
 30
0.0000
  0
SEQEND
  8
0
  0
POLYLINE
  8
21
 66
1
 10
0.0000
 20
0.0000
 30
0.0000
 40
0.0762
 41
0.0762
 70
0
  0
VERTEX
  8
21
 10
2.2250
 20
-9.2319
 30
0.0000
 42
1.0000
  0
VERTEX
  8
21
 10
2.2250
 20
-9.3081
 30
0.0000
  0
SEQEND
  8
0
  0
POLYLINE
  8
21
 66
1
 10
0.0000
 20
0.0000
 30
0.0000
 40
0.0762
 41
0.0762
 70
0
  0
VERTEX
  8
21
 10
3.4950
 20
-9.3081
 30
0.0000
 42
1.0000
  0
VERTEX
  8
21
 10
3.4950
 20
-9.2319
 30
0.0000
  0
SEQEND
  8
0
  0
POLYLINE
  8
21
 66
1
 10
0.0000
 20
0.0000
 30
0.0000
 40
0.1524
 41
0.1524
 70
0
  0
VERTEX
  8
21
 10
2.2250
 20
-9.2700
 30
0.0000
  0
VERTEX
  8
21
 10
1.5900
 20
-8.6350
 30
0.0000
  0
SEQEND
  8
0
  0
POLYLINE
  8
21
 66
1
 10
0.0000
 20
0.0000
 30
0.0000
 40
0.0762
 41
0.0762
 70
0
  0
VERTEX
  8
21
 10
1.6169
 20
-8.6081
 30
0.0000
 42
1.0000
  0
VERTEX
  8
21
 10
1.5631
 20
-8.6619
 30
0.0000
  0
SEQEND
  8
0
  0
POLYLINE
  8
21
 66
1
 10
0.0000
 20
0.0000
 30
0.0000
 40
0.0762
 41
0.0762
 70
0
  0
VERTEX
  8
21
 10
2.1981
 20
-9.2969
 30
0.0000
 42
1.0000
  0
VERTEX
  8
21
 10
2.2519
 20
-9.2431
 30
0.0000
  0
SEQEND
  8
0
  0
POLYLINE
  8
21
 66
1
 10
0.0000
 20
0.0000
 30
0.0000
 40
0.1524
 41
0.1524
 70
0
  0
VERTEX
  8
21
 10
1.5900
 20
-8.6350
 30
0.0000
  0
VERTEX
  8
21
 10
1.5900
 20
-7.3650
 30
0.0000
  0
SEQEND
  8
0
  0
POLYLINE
  8
21
 66
1
 10
0.0000
 20
0.0000
 30
0.0000
 40
0.0762
 41
0.0762
 70
0
  0
VERTEX
  8
21
 10
1.6281
 20
-7.3650
 30
0.0000
 42
1.0000
  0
VERTEX
  8
21
 10
1.5519
 20
-7.3650
 30
0.0000
  0
SEQEND
  8
0
  0
POLYLINE
  8
21
 66
1
 10
0.0000
 20
0.0000
 30
0.0000
 40
0.0762
 41
0.0762
 70
0
  0
VERTEX
  8
21
 10
1.5519
 20
-8.6350
 30
0.0000
 42
1.0000
  0
VERTEX
  8
21
 10
1.6281
 20
-8.6350
 30
0.0000
  0
SEQEND
  8
0
  0
POLYLINE
  8
21
 66
1
 10
0.0000
 20
0.0000
 30
0.0000
 40
0.1524
 41
0.1524
 70
0
  0
VERTEX
  8
21
 10
1.5900
 20
-7.3650
 30
0.0000
  0
VERTEX
  8
21
 10
2.2250
 20
-6.7300
 30
0.0000
  0
SEQEND
  8
0
  0
POLYLINE
  8
21
 66
1
 10
0.0000
 20
0.0000
 30
0.0000
 40
0.0762
 41
0.0762
 70
0
  0
VERTEX
  8
21
 10
2.2519
 20
-6.7569
 30
0.0000
 42
1.0000
  0
VERTEX
  8
21
 10
2.1981
 20
-6.7031
 30
0.0000
  0
SEQEND
  8
0
  0
POLYLINE
  8
21
 66
1
 10
0.0000
 20
0.0000
 30
0.0000
 40
0.0762
 41
0.0762
 70
0
  0
VERTEX
  8
21
 10
1.5631
 20
-7.3381
 30
0.0000
 42
1.0000
  0
VERTEX
  8
21
 10
1.6169
 20
-7.3919
 30
0.0000
  0
SEQEND
  8
0
  0
POLYLINE
  8
21
 66
1
 10
0.0000
 20
0.0000
 30
0.0000
 40
0.1524
 41
0.1524
 70
0
  0
VERTEX
  8
21
 10
2.2250
 20
-6.7300
 30
0.0000
  0
VERTEX
  8
21
 10
3.4950
 20
-6.7300
 30
0.0000
  0
SEQEND
  8
0
  0
POLYLINE
  8
21
 66
1
 10
0.0000
 20
0.0000
 30
0.0000
 40
0.0762
 41
0.0762
 70
0
  0
VERTEX
  8
21
 10
3.4950
 20
-6.7681
 30
0.0000
 42
1.0000
  0
VERTEX
  8
21
 10
3.4950
 20
-6.6919
 30
0.0000
  0
SEQEND
  8
0
  0
POLYLINE
  8
21
 66
1
 10
0.0000
 20
0.0000
 30
0.0000
 40
0.0762
 41
0.0762
 70
0
  0
VERTEX
  8
21
 10
2.2250
 20
-6.6919
 30
0.0000
 42
1.0000
  0
VERTEX
  8
21
 10
2.2250
 20
-6.7681
 30
0.0000
  0
SEQEND
  8
0
  0
POLYLINE
  8
21
 66
1
 10
0.0000
 20
0.0000
 30
0.0000
 40
0.1524
 41
0.1524
 70
0
  0
VERTEX
  8
21
 10
3.4950
 20
-6.7300
 30
0.0000
  0
VERTEX
  8
21
 10
4.1300
 20
-7.3650
 30
0.0000
  0
SEQEND
  8
0
  0
POLYLINE
  8
21
 66
1
 10
0.0000
 20
0.0000
 30
0.0000
 40
0.0762
 41
0.0762
 70
0
  0
VERTEX
  8
21
 10
4.1031
 20
-7.3919
 30
0.0000
 42
1.0000
  0
VERTEX
  8
21
 10
4.1569
 20
-7.3381
 30
0.0000
  0
SEQEND
  8
0
  0
POLYLINE
  8
21
 66
1
 10
0.0000
 20
0.0000
 30
0.0000
 40
0.0762
 41
0.0762
 70
0
  0
VERTEX
  8
21
 10
3.5219
 20
-6.7031
 30
0.0000
 42
1.0000
  0
VERTEX
  8
21
 10
3.4681
 20
-6.7569
 30
0.0000
  0
SEQEND
  8
0
  0
INSERT
  8
51
  2
RECT
 10
5.4000
 20
-8.0000
 30
0.0000
 41
0.6000
 42
0.6000
 43
1.0000
 50
180.0000
  0
INSERT
  8
51
  2
RECT
 10
7.9400
 20
-8.0000
 30
0.0000
 41
0.6000
 42
0.6000
 43
1.0000
 50
180.0000
  0
INSERT
  8
51
  2
RECT
 10
2.8600
 20
-8.0000
 30
0.0000
 41
0.6000
 42
0.6000
 43
1.0000
 50
180.0000
  0
POLYLINE
  8
51
 66
1
 10
0.0000
 20
0.0000
 30
0.0000
 40
0.1270
 41
0.1270
 70
0
  0
VERTEX
  8
51
 10
19.8100
 20
7.1300
 30
0.0000
  0
VERTEX
  8
51
 10
12.1900
 20
7.1300
 30
0.0000
  0
SEQEND
  8
0
  0
POLYLINE
  8
51
 66
1
 10
0.0000
 20
0.0000
 30
0.0000
 40
0.0635
 41
0.0635
 70
0
  0
VERTEX
  8
51
 10
12.1900
 20
7.1618
 30
0.0000
 42
1.0000
  0
VERTEX
  8
51
 10
12.1900
 20
7.0983
 30
0.0000
  0
SEQEND
  8
0
  0
POLYLINE
  8
51
 66
1
 10
0.0000
 20
0.0000
 30
0.0000
 40
0.0635
 41
0.0635
 70
0
  0
VERTEX
  8
51
 10
19.8100
 20
7.0983
 30
0.0000
 42
1.0000
  0
VERTEX
  8
51
 10
19.8100
 20
7.1618
 30
0.0000
  0
SEQEND
  8
0
  0
POLYLINE
  8
51
 66
1
 10
0.0000
 20
0.0000
 30
0.0000
 40
0.1270
 41
0.1270
 70
0
  0
VERTEX
  8
51
 10
19.8100
 20
9.6700
 30
0.0000
  0
VERTEX
  8
51
 10
12.1900
 20
9.6700
 30
0.0000
  0
SEQEND
  8
0
  0
POLYLINE
  8
51
 66
1
 10
0.0000
 20
0.0000
 30
0.0000
 40
0.0635
 41
0.0635
 70
0
  0
VERTEX
  8
51
 10
12.1900
 20
9.7018
 30
0.0000
 42
1.0000
  0
VERTEX
  8
51
 10
12.1900
 20
9.6382
 30
0.0000
  0
SEQEND
  8
0
  0
POLYLINE
  8
51
 66
1
 10
0.0000
 20
0.0000
 30
0.0000
 40
0.0635
 41
0.0635
 70
0
  0
VERTEX
  8
51
 10
19.8100
 20
9.6382
 30
0.0000
 42
1.0000
  0
VERTEX
  8
51
 10
19.8100
 20
9.7018
 30
0.0000
  0
SEQEND
  8
0
  0
POLYLINE
  8
51
 66
1
 10
0.0000
 20
0.0000
 30
0.0000
 40
0.1270
 41
0.1270
 70
0
  0
VERTEX
  8
51
 10
20.6000
 20
5.4000
 30
0.0000
  0
VERTEX
  8
51
 10
20.6000
 20
11.4000
 30
0.0000
  0
SEQEND
  8
0
  0
POLYLINE
  8
51
 66
1
 10
0.0000
 20
0.0000
 30
0.0000
 40
0.0635
 41
0.0635
 70
0
  0
VERTEX
  8
51
 10
20.6318
 20
11.4000
 30
0.0000
 42
1.0000
  0
VERTEX
  8
51
 10
20.5683
 20
11.4000
 30
0.0000
  0
SEQEND
  8
0
  0
POLYLINE
  8
51
 66
1
 10
0.0000
 20
0.0000
 30
0.0000
 40
0.0635
 41
0.0635
 70
0
  0
VERTEX
  8
51
 10
20.5683
 20
5.4000
 30
0.0000
 42
1.0000
  0
VERTEX
  8
51
 10
20.6318
 20
5.4000
 30
0.0000
  0
SEQEND
  8
0
  0
POLYLINE
  8
21
 66
1
 10
0.0000
 20
0.0000
 30
0.0000
 40
0.1270
 41
0.1270
 70
0
  0
VERTEX
  8
21
 10
20.6000
 20
11.4000
 30
0.0000
  0
VERTEX
  8
21
 10
11.4000
 20
11.4000
 30
0.0000
  0
SEQEND
  8
0
  0
POLYLINE
  8
21
 66
1
 10
0.0000
 20
0.0000
 30
0.0000
 40
0.0635
 41
0.0635
 70
0
  0
VERTEX
  8
21
 10
11.4000
 20
11.4318
 30
0.0000
 42
1.0000
  0
VERTEX
  8
21
 10
11.4000
 20
11.3682
 30
0.0000
  0
SEQEND
  8
0
  0
POLYLINE
  8
21
 66
1
 10
0.0000
 20
0.0000
 30
0.0000
 40
0.0635
 41
0.0635
 70
0
  0
VERTEX
  8
21
 10
20.6000
 20
11.3682
 30
0.0000
 42
1.0000
  0
VERTEX
  8
21
 10
20.6000
 20
11.4318
 30
0.0000
  0
SEQEND
  8
0
  0
POLYLINE
  8
51
 66
1
 10
0.0000
 20
0.0000
 30
0.0000
 40
0.1270
 41
0.1270
 70
0
  0
VERTEX
  8
51
 10
11.4000
 20
11.4000
 30
0.0000
  0
VERTEX
  8
51
 10
11.4000
 20
5.4000
 30
0.0000
  0
SEQEND
  8
0
  0
POLYLINE
  8
51
 66
1
 10
0.0000
 20
0.0000
 30
0.0000
 40
0.0635
 41
0.0635
 70
0
  0
VERTEX
  8
51
 10
11.3682
 20
5.4000
 30
0.0000
 42
1.0000
  0
VERTEX
  8
51
 10
11.4318
 20
5.4000
 30
0.0000
  0
SEQEND
  8
0
  0
POLYLINE
  8
51
 66
1
 10
0.0000
 20
0.0000
 30
0.0000
 40
0.0635
 41
0.0635
 70
0
  0
VERTEX
  8
51
 10
11.4318
 20
11.4000
 30
0.0000
 42
1.0000
  0
VERTEX
  8
51
 10
11.3682
 20
11.4000
 30
0.0000
  0
SEQEND
  8
0
  0
POLYLINE
  8
21
 66
1
 10
0.0000
 20
0.0000
 30
0.0000
 40
0.1270
 41
0.1270
 70
0
  0
VERTEX
  8
21
 10
11.4000
 20
5.4000
 30
0.0000
  0
VERTEX
  8
21
 10
20.6000
 20
5.4000
 30
0.0000
  0
SEQEND
  8
0
  0
POLYLINE
  8
21
 66
1
 10
0.0000
 20
0.0000
 30
0.0000
 40
0.0635
 41
0.0635
 70
0
  0
VERTEX
  8
21
 10
20.6000
 20
5.3683
 30
0.0000
 42
1.0000
  0
VERTEX
  8
21
 10
20.6000
 20
5.4318
 30
0.0000
  0
SEQEND
  8
0
  0
POLYLINE
  8
21
 66
1
 10
0.0000
 20
0.0000
 30
0.0000
 40
0.0635
 41
0.0635
 70
0
  0
VERTEX
  8
21
 10
11.4000
 20
5.4318
 30
0.0000
 42
1.0000
  0
VERTEX
  8
21
 10
11.4000
 20
5.3683
 30
0.0000
  0
SEQEND
  8
0
  0
INSERT
  8
21
  2
RECT
 10
16.0000
 20
9.6500
 30
0.0000
 41
2.0000
 42
0.5000
 43
1.0000
 50
180.0000
  0
INSERT
  8
21
  2
RECT
 10
16.0000
 20
7.1500
 30
0.0000
 41
2.0000
 42
0.5000
 43
1.0000
 50
180.0000
  0
POLYLINE
  8
51
 66
1
 10
0.0000
 20
0.0000
 30
0.0000
 40
0.1270
 41
0.1270
 70
0
  0
VERTEX
  8
51
 10
19.8100
 20
-9.6700
 30
0.0000
  0
VERTEX
  8
51
 10
12.1900
 20
-9.6700
 30
0.0000
  0
SEQEND
  8
0
  0
POLYLINE
  8
51
 66
1
 10
0.0000
 20
0.0000
 30
0.0000
 40
0.0635
 41
0.0635
 70
0
  0
VERTEX
  8
51
 10
12.1900
 20
-9.6382
 30
0.0000
 42
1.0000
  0
VERTEX
  8
51
 10
12.1900
 20
-9.7018
 30
0.0000
  0
SEQEND
  8
0
  0
POLYLINE
  8
51
 66
1
 10
0.0000
 20
0.0000
 30
0.0000
 40
0.0635
 41
0.0635
 70
0
  0
VERTEX
  8
51
 10
19.8100
 20
-9.7018
 30
0.0000
 42
1.0000
  0
VERTEX
  8
51
 10
19.8100
 20
-9.6382
 30
0.0000
  0
SEQEND
  8
0
  0
POLYLINE
  8
51
 66
1
 10
0.0000
 20
0.0000
 30
0.0000
 40
0.1270
 41
0.1270
 70
0
  0
VERTEX
  8
51
 10
19.8100
 20
-7.1300
 30
0.0000
  0
VERTEX
  8
51
 10
12.1900
 20
-7.1300
 30
0.0000
  0
SEQEND
  8
0
  0
POLYLINE
  8
51
 66
1
 10
0.0000
 20
0.0000
 30
0.0000
 40
0.0635
 41
0.0635
 70
0
  0
VERTEX
  8
51
 10
12.1900
 20
-7.0983
 30
0.0000
 42
1.0000
  0
VERTEX
  8
51
 10
12.1900
 20
-7.1618
 30
0.0000
  0
SEQEND
  8
0
  0
POLYLINE
  8
51
 66
1
 10
0.0000
 20
0.0000
 30
0.0000
 40
0.0635
 41
0.0635
 70
0
  0
VERTEX
  8
51
 10
19.8100
 20
-7.1618
 30
0.0000
 42
1.0000
  0
VERTEX
  8
51
 10
19.8100
 20
-7.0983
 30
0.0000
  0
SEQEND
  8
0
  0
POLYLINE
  8
51
 66
1
 10
0.0000
 20
0.0000
 30
0.0000
 40
0.1270
 41
0.1270
 70
0
  0
VERTEX
  8
51
 10
20.6000
 20
-11.4000
 30
0.0000
  0
VERTEX
  8
51
 10
20.6000
 20
-5.4000
 30
0.0000
  0
SEQEND
  8
0
  0
POLYLINE
  8
51
 66
1
 10
0.0000
 20
0.0000
 30
0.0000
 40
0.0635
 41
0.0635
 70
0
  0
VERTEX
  8
51
 10
20.6318
 20
-5.4000
 30
0.0000
 42
1.0000
  0
VERTEX
  8
51
 10
20.5683
 20
-5.4000
 30
0.0000
  0
SEQEND
  8
0
  0
POLYLINE
  8
51
 66
1
 10
0.0000
 20
0.0000
 30
0.0000
 40
0.0635
 41
0.0635
 70
0
  0
VERTEX
  8
51
 10
20.5683
 20
-11.4000
 30
0.0000
 42
1.0000
  0
VERTEX
  8
51
 10
20.6318
 20
-11.4000
 30
0.0000
  0
SEQEND
  8
0
  0
POLYLINE
  8
21
 66
1
 10
0.0000
 20
0.0000
 30
0.0000
 40
0.1270
 41
0.1270
 70
0
  0
VERTEX
  8
21
 10
20.6000
 20
-5.4000
 30
0.0000
  0
VERTEX
  8
21
 10
11.4000
 20
-5.4000
 30
0.0000
  0
SEQEND
  8
0
  0
POLYLINE
  8
21
 66
1
 10
0.0000
 20
0.0000
 30
0.0000
 40
0.0635
 41
0.0635
 70
0
  0
VERTEX
  8
21
 10
11.4000
 20
-5.3683
 30
0.0000
 42
1.0000
  0
VERTEX
  8
21
 10
11.4000
 20
-5.4318
 30
0.0000
  0
SEQEND
  8
0
  0
POLYLINE
  8
21
 66
1
 10
0.0000
 20
0.0000
 30
0.0000
 40
0.0635
 41
0.0635
 70
0
  0
VERTEX
  8
21
 10
20.6000
 20
-5.4318
 30
0.0000
 42
1.0000
  0
VERTEX
  8
21
 10
20.6000
 20
-5.3683
 30
0.0000
  0
SEQEND
  8
0
  0
POLYLINE
  8
51
 66
1
 10
0.0000
 20
0.0000
 30
0.0000
 40
0.1270
 41
0.1270
 70
0
  0
VERTEX
  8
51
 10
11.4000
 20
-5.4000
 30
0.0000
  0
VERTEX
  8
51
 10
11.4000
 20
-11.4000
 30
0.0000
  0
SEQEND
  8
0
  0
POLYLINE
  8
51
 66
1
 10
0.0000
 20
0.0000
 30
0.0000
 40
0.0635
 41
0.0635
 70
0
  0
VERTEX
  8
51
 10
11.3682
 20
-11.4000
 30
0.0000
 42
1.0000
  0
VERTEX
  8
51
 10
11.4318
 20
-11.4000
 30
0.0000
  0
SEQEND
  8
0
  0
POLYLINE
  8
51
 66
1
 10
0.0000
 20
0.0000
 30
0.0000
 40
0.0635
 41
0.0635
 70
0
  0
VERTEX
  8
51
 10
11.4318
 20
-5.4000
 30
0.0000
 42
1.0000
  0
VERTEX
  8
51
 10
11.3682
 20
-5.4000
 30
0.0000
  0
SEQEND
  8
0
  0
POLYLINE
  8
21
 66
1
 10
0.0000
 20
0.0000
 30
0.0000
 40
0.1270
 41
0.1270
 70
0
  0
VERTEX
  8
21
 10
11.4000
 20
-11.4000
 30
0.0000
  0
VERTEX
  8
21
 10
20.6000
 20
-11.4000
 30
0.0000
  0
SEQEND
  8
0
  0
POLYLINE
  8
21
 66
1
 10
0.0000
 20
0.0000
 30
0.0000
 40
0.0635
 41
0.0635
 70
0
  0
VERTEX
  8
21
 10
20.6000
 20
-11.4318
 30
0.0000
 42
1.0000
  0
VERTEX
  8
21
 10
20.6000
 20
-11.3682
 30
0.0000
  0
SEQEND
  8
0
  0
POLYLINE
  8
21
 66
1
 10
0.0000
 20
0.0000
 30
0.0000
 40
0.0635
 41
0.0635
 70
0
  0
VERTEX
  8
21
 10
11.4000
 20
-11.3682
 30
0.0000
 42
1.0000
  0
VERTEX
  8
21
 10
11.4000
 20
-11.4318
 30
0.0000
  0
SEQEND
  8
0
  0
INSERT
  8
21
  2
RECT
 10
16.0000
 20
-7.1500
 30
0.0000
 41
2.0000
 42
0.5000
 43
1.0000
 50
180.0000
  0
INSERT
  8
21
  2
RECT
 10
16.0000
 20
-9.6500
 30
0.0000
 41
2.0000
 42
0.5000
 43
1.0000
 50
180.0000
  0
POLYLINE
  8
51
 66
1
 10
0.0000
 20
0.0000
 30
0.0000
 40
0.1270
 41
0.1270
 70
0
  0
VERTEX
  8
51
 10
21.1004
 20
-6.0110
 30
0.0000
  0
VERTEX
  8
51
 10
24.9107
 20
-6.0110
 30
0.0000
  0
SEQEND
  8
0
  0
POLYLINE
  8
51
 66
1
 10
0.0000
 20
0.0000
 30
0.0000
 40
0.0635
 41
0.0635
 70
0
  0
VERTEX
  8
51
 10
24.9107
 20
-6.0427
 30
0.0000
 42
1.0000
  0
VERTEX
  8
51
 10
24.9107
 20
-5.9793
 30
0.0000
  0
SEQEND
  8
0
  0
POLYLINE
  8
51
 66
1
 10
0.0000
 20
0.0000
 30
0.0000
 40
0.0635
 41
0.0635
 70
0
  0
VERTEX
  8
51
 10
21.1004
 20
-5.9793
 30
0.0000
 42
1.0000
  0
VERTEX
  8
51
 10
21.1004
 20
-6.0427
 30
0.0000
  0
SEQEND
  8
0
  0
POLYLINE
  8
51
 66
1
 10
0.0000
 20
0.0000
 30
0.0000
 40
0.1270
 41
0.1270
 70
0
  0
VERTEX
  8
51
 10
24.9107
 20
-6.0110
 30
0.0000
  0
VERTEX
  8
51
 10
24.9107
 20
-4.3890
 30
0.0000
  0
SEQEND
  8
0
  0
POLYLINE
  8
51
 66
1
 10
0.0000
 20
0.0000
 30
0.0000
 40
0.0635
 41
0.0635
 70
0
  0
VERTEX
  8
51
 10
24.9425
 20
-4.3890
 30
0.0000
 42
1.0000
  0
VERTEX
  8
51
 10
24.8790
 20
-4.3890
 30
0.0000
  0
SEQEND
  8
0
  0
POLYLINE
  8
51
 66
1
 10
0.0000
 20
0.0000
 30
0.0000
 40
0.0635
 41
0.0635
 70
0
  0
VERTEX
  8
51
 10
24.8790
 20
-6.0110
 30
0.0000
 42
1.0000
  0
VERTEX
  8
51
 10
24.9425
 20
-6.0110
 30
0.0000
  0
SEQEND
  8
0
  0
POLYLINE
  8
51
 66
1
 10
0.0000
 20
0.0000
 30
0.0000
 40
0.1270
 41
0.1270
 70
0
  0
VERTEX
  8
51
 10
24.9107
 20
-4.3890
 30
0.0000
  0
VERTEX
  8
51
 10
21.1004
 20
-4.3890
 30
0.0000
  0
SEQEND
  8
0
  0
POLYLINE
  8
51
 66
1
 10
0.0000
 20
0.0000
 30
0.0000
 40
0.0635
 41
0.0635
 70
0
  0
VERTEX
  8
51
 10
21.1004
 20
-4.3573
 30
0.0000
 42
1.0000
  0
VERTEX
  8
51
 10
21.1004
 20
-4.4207
 30
0.0000
  0
SEQEND
  8
0
  0
POLYLINE
  8
51
 66
1
 10
0.0000
 20
0.0000
 30
0.0000
 40
0.0635
 41
0.0635
 70
0
  0
VERTEX
  8
51
 10
24.9107
 20
-4.4207
 30
0.0000
 42
1.0000
  0
VERTEX
  8
51
 10
24.9107
 20
-4.3573
 30
0.0000
  0
SEQEND
  8
0
  0
POLYLINE
  8
51
 66
1
 10
0.0000
 20
0.0000
 30
0.0000
 40
0.1270
 41
0.1270
 70
0
  0
VERTEX
  8
51
 10
21.1004
 20
-4.3890
 30
0.0000
  0
VERTEX
  8
51
 10
21.1004
 20
-6.0110
 30
0.0000
  0
SEQEND
  8
0
  0
POLYLINE
  8
51
 66
1
 10
0.0000
 20
0.0000
 30
0.0000
 40
0.0635
 41
0.0635
 70
0
  0
VERTEX
  8
51
 10
21.0687
 20
-6.0110
 30
0.0000
 42
1.0000
  0
VERTEX
  8
51
 10
21.1321
 20
-6.0110
 30
0.0000
  0
SEQEND
  8
0
  0
POLYLINE
  8
51
 66
1
 10
0.0000
 20
0.0000
 30
0.0000
 40
0.0635
 41
0.0635
 70
0
  0
VERTEX
  8
51
 10
21.1321
 20
-4.3890
 30
0.0000
 42
1.0000
  0
VERTEX
  8
51
 10
21.0687
 20
-4.3890
 30
0.0000
  0
SEQEND
  8
0
  0
POLYLINE
  8
51
 66
1
 10
0.0000
 20
0.0000
 30
0.0000
 40
0.0500
 41
0.0500
 70
0
  0
VERTEX
  8
51
 10
22.0000
 20
-4.5750
 30
0.0000
  0
VERTEX
  8
51
 10
22.0000
 20
-5.8250
 30
0.0000
  0
SEQEND
  8
0
  0
POLYLINE
  8
51
 66
1
 10
0.0000
 20
0.0000
 30
0.0000
 40
0.0250
 41
0.0250
 70
0
  0
VERTEX
  8
51
 10
21.9875
 20
-5.8250
 30
0.0000
 42
1.0000
  0
VERTEX
  8
51
 10
22.0125
 20
-5.8250
 30
0.0000
  0
SEQEND
  8
0
  0
POLYLINE
  8
51
 66
1
 10
0.0000
 20
0.0000
 30
0.0000
 40
0.0250
 41
0.0250
 70
0
  0
VERTEX
  8
51
 10
22.0125
 20
-4.5750
 30
0.0000
 42
1.0000
  0
VERTEX
  8
51
 10
21.9875
 20
-4.5750
 30
0.0000
  0
SEQEND
  8
0
  0
POLYLINE
  8
51
 66
1
 10
0.0000
 20
0.0000
 30
0.0000
 40
0.0500
 41
0.0500
 70
0
  0
VERTEX
  8
51
 10
22.0000
 20
-5.8250
 30
0.0000
  0
VERTEX
  8
51
 10
24.0000
 20
-5.8250
 30
0.0000
  0
SEQEND
  8
0
  0
POLYLINE
  8
51
 66
1
 10
0.0000
 20
0.0000
 30
0.0000
 40
0.0250
 41
0.0250
 70
0
  0
VERTEX
  8
51
 10
24.0000
 20
-5.8375
 30
0.0000
 42
1.0000
  0
VERTEX
  8
51
 10
24.0000
 20
-5.8125
 30
0.0000
  0
SEQEND
  8
0
  0
POLYLINE
  8
51
 66
1
 10
0.0000
 20
0.0000
 30
0.0000
 40
0.0250
 41
0.0250
 70
0
  0
VERTEX
  8
51
 10
22.0000
 20
-5.8125
 30
0.0000
 42
1.0000
  0
VERTEX
  8
51
 10
22.0000
 20
-5.8375
 30
0.0000
  0
SEQEND
  8
0
  0
POLYLINE
  8
51
 66
1
 10
0.0000
 20
0.0000
 30
0.0000
 40
0.0500
 41
0.0500
 70
0
  0
VERTEX
  8
51
 10
24.0000
 20
-5.8250
 30
0.0000
  0
VERTEX
  8
51
 10
24.0000
 20
-4.5750
 30
0.0000
  0
SEQEND
  8
0
  0
POLYLINE
  8
51
 66
1
 10
0.0000
 20
0.0000
 30
0.0000
 40
0.0250
 41
0.0250
 70
0
  0
VERTEX
  8
51
 10
24.0125
 20
-4.5750
 30
0.0000
 42
1.0000
  0
VERTEX
  8
51
 10
23.9875
 20
-4.5750
 30
0.0000
  0
SEQEND
  8
0
  0
POLYLINE
  8
51
 66
1
 10
0.0000
 20
0.0000
 30
0.0000
 40
0.0250
 41
0.0250
 70
0
  0
VERTEX
  8
51
 10
23.9875
 20
-5.8250
 30
0.0000
 42
1.0000
  0
VERTEX
  8
51
 10
24.0125
 20
-5.8250
 30
0.0000
  0
SEQEND
  8
0
  0
POLYLINE
  8
51
 66
1
 10
0.0000
 20
0.0000
 30
0.0000
 40
0.0500
 41
0.0500
 70
0
  0
VERTEX
  8
51
 10
24.0000
 20
-4.5750
 30
0.0000
  0
VERTEX
  8
51
 10
22.0000
 20
-4.5750
 30
0.0000
  0
SEQEND
  8
0
  0
POLYLINE
  8
51
 66
1
 10
0.0000
 20
0.0000
 30
0.0000
 40
0.0250
 41
0.0250
 70
0
  0
VERTEX
  8
51
 10
22.0000
 20
-4.5625
 30
0.0000
 42
1.0000
  0
VERTEX
  8
51
 10
22.0000
 20
-4.5875
 30
0.0000
  0
SEQEND
  8
0
  0
POLYLINE
  8
51
 66
1
 10
0.0000
 20
0.0000
 30
0.0000
 40
0.0250
 41
0.0250
 70
0
  0
VERTEX
  8
51
 10
24.0000
 20
-4.5875
 30
0.0000
 42
1.0000
  0
VERTEX
  8
51
 10
24.0000
 20
-4.5625
 30
0.0000
  0
SEQEND
  8
0
  0
INSERT
  8
21
  2
RECT
 10
23.0000
 20
-5.7000
 30
0.0000
 41
0.6000
 42
0.3000
 43
1.0000
 50
180.0000
  0
INSERT
  8
21
  2
RECT
 10
23.0000
 20
-4.7000
 30
0.0000
 41
0.6000
 42
0.3000
 43
1.0000
 50
180.0000
  0
POLYLINE
  8
51
 66
1
 10
0.0000
 20
0.0000
 30
0.0000
 40
0.1270
 41
0.1270
 70
0
  0
VERTEX
  8
51
 10
6.6000
 20
-4.6500
 30
0.0000
  0
VERTEX
  8
51
 10
9.8000
 20
-4.6500
 30
0.0000
  0
SEQEND
  8
0
  0
POLYLINE
  8
51
 66
1
 10
0.0000
 20
0.0000
 30
0.0000
 40
0.0635
 41
0.0635
 70
0
  0
VERTEX
  8
51
 10
9.8000
 20
-4.6818
 30
0.0000
 42
1.0000
  0
VERTEX
  8
51
 10
9.8000
 20
-4.6183
 30
0.0000
  0
SEQEND
  8
0
  0
POLYLINE
  8
51
 66
1
 10
0.0000
 20
0.0000
 30
0.0000
 40
0.0635
 41
0.0635
 70
0
  0
VERTEX
  8
51
 10
6.6000
 20
-4.6183
 30
0.0000
 42
1.0000
  0
VERTEX
  8
51
 10
6.6000
 20
-4.6818
 30
0.0000
  0
SEQEND
  8
0
  0
POLYLINE
  8
21
 66
1
 10
0.0000
 20
0.0000
 30
0.0000
 40
0.1270
 41
0.1270
 70
0
  0
VERTEX
  8
21
 10
9.8000
 20
-4.6500
 30
0.0000
  0
VERTEX
  8
21
 10
9.8000
 20
-3.0500
 30
0.0000
  0
SEQEND
  8
0
  0
POLYLINE
  8
21
 66
1
 10
0.0000
 20
0.0000
 30
0.0000
 40
0.0635
 41
0.0635
 70
0
  0
VERTEX
  8
21
 10
9.8318
 20
-3.0500
 30
0.0000
 42
1.0000
  0
VERTEX
  8
21
 10
9.7683
 20
-3.0500
 30
0.0000
  0
SEQEND
  8
0
  0
POLYLINE
  8
21
 66
1
 10
0.0000
 20
0.0000
 30
0.0000
 40
0.0635
 41
0.0635
 70
0
  0
VERTEX
  8
21
 10
9.7683
 20
-4.6500
 30
0.0000
 42
1.0000
  0
VERTEX
  8
21
 10
9.8318
 20
-4.6500
 30
0.0000
  0
SEQEND
  8
0
  0
POLYLINE
  8
51
 66
1
 10
0.0000
 20
0.0000
 30
0.0000
 40
0.1270
 41
0.1270
 70
0
  0
VERTEX
  8
51
 10
9.8000
 20
-3.0500
 30
0.0000
  0
VERTEX
  8
51
 10
6.6000
 20
-3.0500
 30
0.0000
  0
SEQEND
  8
0
  0
POLYLINE
  8
51
 66
1
 10
0.0000
 20
0.0000
 30
0.0000
 40
0.0635
 41
0.0635
 70
0
  0
VERTEX
  8
51
 10
6.6000
 20
-3.0183
 30
0.0000
 42
1.0000
  0
VERTEX
  8
51
 10
6.6000
 20
-3.0818
 30
0.0000
  0
SEQEND
  8
0
  0
POLYLINE
  8
51
 66
1
 10
0.0000
 20
0.0000
 30
0.0000
 40
0.0635
 41
0.0635
 70
0
  0
VERTEX
  8
51
 10
9.8000
 20
-3.0818
 30
0.0000
 42
1.0000
  0
VERTEX
  8
51
 10
9.8000
 20
-3.0183
 30
0.0000
  0
SEQEND
  8
0
  0
POLYLINE
  8
21
 66
1
 10
0.0000
 20
0.0000
 30
0.0000
 40
0.1270
 41
0.1270
 70
0
  0
VERTEX
  8
21
 10
6.6000
 20
-3.0500
 30
0.0000
  0
VERTEX
  8
21
 10
6.6000
 20
-4.6500
 30
0.0000
  0
SEQEND
  8
0
  0
POLYLINE
  8
21
 66
1
 10
0.0000
 20
0.0000
 30
0.0000
 40
0.0635
 41
0.0635
 70
0
  0
VERTEX
  8
21
 10
6.5683
 20
-4.6500
 30
0.0000
 42
1.0000
  0
VERTEX
  8
21
 10
6.6318
 20
-4.6500
 30
0.0000
  0
SEQEND
  8
0
  0
POLYLINE
  8
21
 66
1
 10
0.0000
 20
0.0000
 30
0.0000
 40
0.0635
 41
0.0635
 70
0
  0
VERTEX
  8
21
 10
6.6318
 20
-3.0500
 30
0.0000
 42
1.0000
  0
VERTEX
  8
21
 10
6.5683
 20
-3.0500
 30
0.0000
  0
SEQEND
  8
0
  0
POLYLINE
  8
51
 66
1
 10
0.0000
 20
0.0000
 30
0.0000
 40
0.1270
 41
0.1270
 70
0
  0
VERTEX
  8
51
 10
9.8000
 20
-3.3500
 30
0.0000
  0
VERTEX
  8
51
 10
6.6000
 20
-3.3500
 30
0.0000
  0
SEQEND
  8
0
  0
POLYLINE
  8
51
 66
1
 10
0.0000
 20
0.0000
 30
0.0000
 40
0.0635
 41
0.0635
 70
0
  0
VERTEX
  8
51
 10
6.6000
 20
-3.3182
 30
0.0000
 42
1.0000
  0
VERTEX
  8
51
 10
6.6000
 20
-3.3818
 30
0.0000
  0
SEQEND
  8
0
  0
POLYLINE
  8
51
 66
1
 10
0.0000
 20
0.0000
 30
0.0000
 40
0.0635
 41
0.0635
 70
0
  0
VERTEX
  8
51
 10
9.8000
 20
-3.3818
 30
0.0000
 42
1.0000
  0
VERTEX
  8
51
 10
9.8000
 20
-3.3182
 30
0.0000
  0
SEQEND
  8
0
  0
POLYLINE
  8
51
 66
1
 10
0.0000
 20
0.0000
 30
0.0000
 40
0.1270
 41
0.1270
 70
0
  0
VERTEX
  8
51
 10
6.6000
 20
-4.3500
 30
0.0000
  0
VERTEX
  8
51
 10
9.8000
 20
-4.3500
 30
0.0000
  0
SEQEND
  8
0
  0
POLYLINE
  8
51
 66
1
 10
0.0000
 20
0.0000
 30
0.0000
 40
0.0635
 41
0.0635
 70
0
  0
VERTEX
  8
51
 10
9.8000
 20
-4.3818
 30
0.0000
 42
1.0000
  0
VERTEX
  8
51
 10
9.8000
 20
-4.3183
 30
0.0000
  0
SEQEND
  8
0
  0
POLYLINE
  8
51
 66
1
 10
0.0000
 20
0.0000
 30
0.0000
 40
0.0635
 41
0.0635
 70
0
  0
VERTEX
  8
51
 10
6.6000
 20
-4.3183
 30
0.0000
 42
1.0000
  0
VERTEX
  8
51
 10
6.6000
 20
-4.3818
 30
0.0000
  0
SEQEND
  8
0
  0
POLYLINE
  8
21
 66
1
 10
0.0000
 20
0.0000
 30
0.0000
 40
0.1524
 41
0.1524
 70
0
  0
VERTEX
  8
21
 10
33.7446
 20
-9.9660
 30
0.0000
  0
VERTEX
  8
21
 10
31.2554
 20
-9.9660
 30
0.0000
  0
SEQEND
  8
0
  0
POLYLINE
  8
21
 66
1
 10
0.0000
 20
0.0000
 30
0.0000
 40
0.0762
 41
0.0762
 70
0
  0
VERTEX
  8
21
 10
31.2554
 20
-9.9279
 30
0.0000
 42
1.0000
  0
VERTEX
  8
21
 10
31.2554
 20
-10.0041
 30
0.0000
  0
SEQEND
  8
0
  0
POLYLINE
  8
21
 66
1
 10
0.0000
 20
0.0000
 30
0.0000
 40
0.0762
 41
0.0762
 70
0
  0
VERTEX
  8
21
 10
33.7446
 20
-10.0041
 30
0.0000
 42
1.0000
  0
VERTEX
  8
21
 10
33.7446
 20
-9.9279
 30
0.0000
  0
SEQEND
  8
0
  0
POLYLINE
  8
21
 66
1
 10
0.0000
 20
0.0000
 30
0.0000
 40
0.1524
 41
0.1524
 70
0
  0
VERTEX
  8
21
 10
33.9986
 20
-8.1880
 30
0.0000
 42
0.4142
  0
VERTEX
  8
21
 10
33.7446
 20
-7.9340
 30
0.0000
  0
SEQEND
  8
0
  0
POLYLINE
  8
21
 66
1
 10
0.0000
 20
0.0000
 30
0.0000
 40
0.0762
 41
0.0762
 70
0
  0
VERTEX
  8
21
 10
33.9605
 20
-8.1880
 30
0.0000
 42
1.0000
  0
VERTEX
  8
21
 10
34.0367
 20
-8.1880
 30
0.0000
  0
SEQEND
  8
0
  0
POLYLINE
  8
21
 66
1
 10
0.0000
 20
0.0000
 30
0.0000
 40
0.0762
 41
0.0762
 70
0
  0
VERTEX
  8
21
 10
33.7446
 20
-7.8959
 30
0.0000
 42
1.0000
  0
VERTEX
  8
21
 10
33.7446
 20
-7.9721
 30
0.0000
  0
SEQEND
  8
0
  0
POLYLINE
  8
21
 66
1
 10
0.0000
 20
0.0000
 30
0.0000
 40
0.1524
 41
0.1524
 70
0
  0
VERTEX
  8
21
 10
31.2554
 20
-7.9340
 30
0.0000
 42
0.4142
  0
VERTEX
  8
21
 10
31.0014
 20
-8.1880
 30
0.0000
  0
SEQEND
  8
0
  0
POLYLINE
  8
21
 66
1
 10
0.0000
 20
0.0000
 30
0.0000
 40
0.0762
 41
0.0762
 70
0
  0
VERTEX
  8
21
 10
31.2554
 20
-7.9721
 30
0.0000
 42
1.0000
  0
VERTEX
  8
21
 10
31.2554
 20
-7.8959
 30
0.0000
  0
SEQEND
  8
0
  0
POLYLINE
  8
21
 66
1
 10
0.0000
 20
0.0000
 30
0.0000
 40
0.0762
 41
0.0762
 70
0
  0
VERTEX
  8
21
 10
30.9633
 20
-8.1880
 30
0.0000
 42
1.0000
  0
VERTEX
  8
21
 10
31.0395
 20
-8.1880
 30
0.0000
  0
SEQEND
  8
0
  0
POLYLINE
  8
21
 66
1
 10
0.0000
 20
0.0000
 30
0.0000
 40
0.1524
 41
0.1524
 70
0
  0
VERTEX
  8
21
 10
31.0014
 20
-9.7120
 30
0.0000
 42
0.4142
  0
VERTEX
  8
21
 10
31.2554
 20
-9.9660
 30
0.0000
  0
SEQEND
  8
0
  0
POLYLINE
  8
21
 66
1
 10
0.0000
 20
0.0000
 30
0.0000
 40
0.0762
 41
0.0762
 70
0
  0
VERTEX
  8
21
 10
31.0395
 20
-9.7120
 30
0.0000
 42
1.0000
  0
VERTEX
  8
21
 10
30.9633
 20
-9.7120
 30
0.0000
  0
SEQEND
  8
0
  0
POLYLINE
  8
21
 66
1
 10
0.0000
 20
0.0000
 30
0.0000
 40
0.0762
 41
0.0762
 70
0
  0
VERTEX
  8
21
 10
31.2554
 20
-10.0041
 30
0.0000
 42
1.0000
  0
VERTEX
  8
21
 10
31.2554
 20
-9.9279
 30
0.0000
  0
SEQEND
  8
0
  0
POLYLINE
  8
21
 66
1
 10
0.0000
 20
0.0000
 30
0.0000
 40
0.1524
 41
0.1524
 70
0
  0
VERTEX
  8
21
 10
33.7446
 20
-9.9660
 30
0.0000
 42
0.4142
  0
VERTEX
  8
21
 10
33.9986
 20
-9.7120
 30
0.0000
  0
SEQEND
  8
0
  0
POLYLINE
  8
21
 66
1
 10
0.0000
 20
0.0000
 30
0.0000
 40
0.0762
 41
0.0762
 70
0
  0
VERTEX
  8
21
 10
33.7446
 20
-9.9279
 30
0.0000
 42
1.0000
  0
VERTEX
  8
21
 10
33.7446
 20
-10.0041
 30
0.0000
  0
SEQEND
  8
0
  0
POLYLINE
  8
21
 66
1
 10
0.0000
 20
0.0000
 30
0.0000
 40
0.0762
 41
0.0762
 70
0
  0
VERTEX
  8
21
 10
34.0367
 20
-9.7120
 30
0.0000
 42
1.0000
  0
VERTEX
  8
21
 10
33.9605
 20
-9.7120
 30
0.0000
  0
SEQEND
  8
0
  0
POLYLINE
  8
21
 66
1
 10
0.0000
 20
0.0000
 30
0.0000
 40
0.1524
 41
0.1524
 70
0
  0
VERTEX
  8
21
 10
33.9986
 20
-9.7120
 30
0.0000
  0
VERTEX
  8
21
 10
33.9986
 20
-8.1880
 30
0.0000
  0
SEQEND
  8
0
  0
POLYLINE
  8
21
 66
1
 10
0.0000
 20
0.0000
 30
0.0000
 40
0.0762
 41
0.0762
 70
0
  0
VERTEX
  8
21
 10
34.0367
 20
-8.1880
 30
0.0000
 42
1.0000
  0
VERTEX
  8
21
 10
33.9605
 20
-8.1880
 30
0.0000
  0
SEQEND
  8
0
  0
POLYLINE
  8
21
 66
1
 10
0.0000
 20
0.0000
 30
0.0000
 40
0.0762
 41
0.0762
 70
0
  0
VERTEX
  8
21
 10
33.9605
 20
-9.7120
 30
0.0000
 42
1.0000
  0
VERTEX
  8
21
 10
34.0367
 20
-9.7120
 30
0.0000
  0
SEQEND
  8
0
  0
POLYLINE
  8
21
 66
1
 10
0.0000
 20
0.0000
 30
0.0000
 40
0.1524
 41
0.1524
 70
0
  0
VERTEX
  8
21
 10
31.0014
 20
-9.7120
 30
0.0000
  0
VERTEX
  8
21
 10
31.0014
 20
-8.1880
 30
0.0000
  0
SEQEND
  8
0
  0
POLYLINE
  8
21
 66
1
 10
0.0000
 20
0.0000
 30
0.0000
 40
0.0762
 41
0.0762
 70
0
  0
VERTEX
  8
21
 10
31.0395
 20
-8.1880
 30
0.0000
 42
1.0000
  0
VERTEX
  8
21
 10
30.9633
 20
-8.1880
 30
0.0000
  0
SEQEND
  8
0
  0
POLYLINE
  8
21
 66
1
 10
0.0000
 20
0.0000
 30
0.0000
 40
0.0762
 41
0.0762
 70
0
  0
VERTEX
  8
21
 10
30.9633
 20
-9.7120
 30
0.0000
 42
1.0000
  0
VERTEX
  8
21
 10
31.0395
 20
-9.7120
 30
0.0000
  0
SEQEND
  8
0
  0
POLYLINE
  8
21
 66
1
 10
0.0000
 20
0.0000
 30
0.0000
 40
0.1524
 41
0.1524
 70
0
  0
VERTEX
  8
21
 10
31.2554
 20
-7.9340
 30
0.0000
  0
VERTEX
  8
21
 10
33.7446
 20
-7.9340
 30
0.0000
  0
SEQEND
  8
0
  0
POLYLINE
  8
21
 66
1
 10
0.0000
 20
0.0000
 30
0.0000
 40
0.0762
 41
0.0762
 70
0
  0
VERTEX
  8
21
 10
33.7446
 20
-7.9721
 30
0.0000
 42
1.0000
  0
VERTEX
  8
21
 10
33.7446
 20
-7.8959
 30
0.0000
  0
SEQEND
  8
0
  0
POLYLINE
  8
21
 66
1
 10
0.0000
 20
0.0000
 30
0.0000
 40
0.0762
 41
0.0762
 70
0
  0
VERTEX
  8
21
 10
31.2554
 20
-7.8959
 30
0.0000
 42
1.0000
  0
VERTEX
  8
21
 10
31.2554
 20
-7.9721
 30
0.0000
  0
SEQEND
  8
0
  0
POLYLINE
  8
51
 66
1
 10
0.0000
 20
0.0000
 30
0.0000
 40
0.1524
 41
0.1524
 70
0
  0
VERTEX
  8
51
 10
33.5160
 20
-8.9500
 30
0.0000
  0
VERTEX
  8
51
 10
33.8716
 20
-8.9500
 30
0.0000
  0
SEQEND
  8
0
  0
POLYLINE
  8
51
 66
1
 10
0.0000
 20
0.0000
 30
0.0000
 40
0.0762
 41
0.0762
 70
0
  0
VERTEX
  8
51
 10
33.8716
 20
-8.9881
 30
0.0000
 42
1.0000
  0
VERTEX
  8
51
 10
33.8716
 20
-8.9119
 30
0.0000
  0
SEQEND
  8
0
  0
POLYLINE
  8
51
 66
1
 10
0.0000
 20
0.0000
 30
0.0000
 40
0.0762
 41
0.0762
 70
0
  0
VERTEX
  8
51
 10
33.5160
 20
-8.9119
 30
0.0000
 42
1.0000
  0
VERTEX
  8
51
 10
33.5160
 20
-8.9881
 30
0.0000
  0
SEQEND
  8
0
  0
POLYLINE
  8
51
 66
1
 10
0.0000
 20
0.0000
 30
0.0000
 40
0.1524
 41
0.1524
 70
0
  0
VERTEX
  8
51
 10
31.6364
 20
-8.9500
 30
0.0000
  0
VERTEX
  8
51
 10
31.1284
 20
-8.9500
 30
0.0000
  0
SEQEND
  8
0
  0
POLYLINE
  8
51
 66
1
 10
0.0000
 20
0.0000
 30
0.0000
 40
0.0762
 41
0.0762
 70
0
  0
VERTEX
  8
51
 10
31.1284
 20
-8.9119
 30
0.0000
 42
1.0000
  0
VERTEX
  8
51
 10
31.1284
 20
-8.9881
 30
0.0000
  0
SEQEND
  8
0
  0
POLYLINE
  8
51
 66
1
 10
0.0000
 20
0.0000
 30
0.0000
 40
0.0762
 41
0.0762
 70
0
  0
VERTEX
  8
51
 10
31.6364
 20
-8.9881
 30
0.0000
 42
1.0000
  0
VERTEX
  8
51
 10
31.6364
 20
-8.9119
 30
0.0000
  0
SEQEND
  8
0
  0
POLYLINE
  8
51
 66
1
 10
0.0000
 20
0.0000
 30
0.0000
 40
1.2700
 41
1.2700
 70
0
  0
VERTEX
  8
51
 10
32.2460
 20
-8.8230
 30
0.0000
 42
1.0000
  0
VERTEX
  8
51
 10
32.2460
 20
-9.0770
 30
0.0000
  0
SEQEND
  8
0
  0
POLYLINE
  8
51
 66
1
 10
0.0000
 20
0.0000
 30
0.0000
 40
1.2700
 41
1.2700
 70
0
  0
VERTEX
  8
51
 10
32.7540
 20
-9.0770
 30
0.0000
 42
1.0000
  0
VERTEX
  8
51
 10
32.7540
 20
-8.8230
 30
0.0000
  0
SEQEND
  8
0
  0
POLYLINE
  8
21
 66
1
 10
0.0000
 20
0.0000
 30
0.0000
 40
0.1524
 41
0.1524
 70
0
  0
VERTEX
  8
21
 10
33.7446
 20
-11.7660
 30
0.0000
  0
VERTEX
  8
21
 10
31.2554
 20
-11.7660
 30
0.0000
  0
SEQEND
  8
0
  0
POLYLINE
  8
21
 66
1
 10
0.0000
 20
0.0000
 30
0.0000
 40
0.0762
 41
0.0762
 70
0
  0
VERTEX
  8
21
 10
31.2554
 20
-11.7279
 30
0.0000
 42
1.0000
  0
VERTEX
  8
21
 10
31.2554
 20
-11.8041
 30
0.0000
  0
SEQEND
  8
0
  0
POLYLINE
  8
21
 66
1
 10
0.0000
 20
0.0000
 30
0.0000
 40
0.0762
 41
0.0762
 70
0
  0
VERTEX
  8
21
 10
33.7446
 20
-11.8041
 30
0.0000
 42
1.0000
  0
VERTEX
  8
21
 10
33.7446
 20
-11.7279
 30
0.0000
  0
SEQEND
  8
0
  0
POLYLINE
  8
21
 66
1
 10
0.0000
 20
0.0000
 30
0.0000
 40
0.1524
 41
0.1524
 70
0
  0
VERTEX
  8
21
 10
33.9986
 20
-9.9880
 30
0.0000
 42
0.4142
  0
VERTEX
  8
21
 10
33.7446
 20
-9.7340
 30
0.0000
  0
SEQEND
  8
0
  0
POLYLINE
  8
21
 66
1
 10
0.0000
 20
0.0000
 30
0.0000
 40
0.0762
 41
0.0762
 70
0
  0
VERTEX
  8
21
 10
33.9605
 20
-9.9880
 30
0.0000
 42
1.0000
  0
VERTEX
  8
21
 10
34.0367
 20
-9.9880
 30
0.0000
  0
SEQEND
  8
0
  0
POLYLINE
  8
21
 66
1
 10
0.0000
 20
0.0000
 30
0.0000
 40
0.0762
 41
0.0762
 70
0
  0
VERTEX
  8
21
 10
33.7446
 20
-9.6959
 30
0.0000
 42
1.0000
  0
VERTEX
  8
21
 10
33.7446
 20
-9.7721
 30
0.0000
  0
SEQEND
  8
0
  0
POLYLINE
  8
21
 66
1
 10
0.0000
 20
0.0000
 30
0.0000
 40
0.1524
 41
0.1524
 70
0
  0
VERTEX
  8
21
 10
31.2554
 20
-9.7340
 30
0.0000
 42
0.4142
  0
VERTEX
  8
21
 10
31.0014
 20
-9.9880
 30
0.0000
  0
SEQEND
  8
0
  0
POLYLINE
  8
21
 66
1
 10
0.0000
 20
0.0000
 30
0.0000
 40
0.0762
 41
0.0762
 70
0
  0
VERTEX
  8
21
 10
31.2554
 20
-9.7721
 30
0.0000
 42
1.0000
  0
VERTEX
  8
21
 10
31.2554
 20
-9.6959
 30
0.0000
  0
SEQEND
  8
0
  0
POLYLINE
  8
21
 66
1
 10
0.0000
 20
0.0000
 30
0.0000
 40
0.0762
 41
0.0762
 70
0
  0
VERTEX
  8
21
 10
30.9633
 20
-9.9880
 30
0.0000
 42
1.0000
  0
VERTEX
  8
21
 10
31.0395
 20
-9.9880
 30
0.0000
  0
SEQEND
  8
0
  0
POLYLINE
  8
21
 66
1
 10
0.0000
 20
0.0000
 30
0.0000
 40
0.1524
 41
0.1524
 70
0
  0
VERTEX
  8
21
 10
31.0014
 20
-11.5120
 30
0.0000
 42
0.4142
  0
VERTEX
  8
21
 10
31.2554
 20
-11.7660
 30
0.0000
  0
SEQEND
  8
0
  0
POLYLINE
  8
21
 66
1
 10
0.0000
 20
0.0000
 30
0.0000
 40
0.0762
 41
0.0762
 70
0
  0
VERTEX
  8
21
 10
31.0395
 20
-11.5120
 30
0.0000
 42
1.0000
  0
VERTEX
  8
21
 10
30.9633
 20
-11.5120
 30
0.0000
  0
SEQEND
  8
0
  0
POLYLINE
  8
21
 66
1
 10
0.0000
 20
0.0000
 30
0.0000
 40
0.0762
 41
0.0762
 70
0
  0
VERTEX
  8
21
 10
31.2554
 20
-11.8041
 30
0.0000
 42
1.0000
  0
VERTEX
  8
21
 10
31.2554
 20
-11.7279
 30
0.0000
  0
SEQEND
  8
0
  0
POLYLINE
  8
21
 66
1
 10
0.0000
 20
0.0000
 30
0.0000
 40
0.1524
 41
0.1524
 70
0
  0
VERTEX
  8
21
 10
33.7446
 20
-11.7660
 30
0.0000
 42
0.4142
  0
VERTEX
  8
21
 10
33.9986
 20
-11.5120
 30
0.0000
  0
SEQEND
  8
0
  0
POLYLINE
  8
21
 66
1
 10
0.0000
 20
0.0000
 30
0.0000
 40
0.0762
 41
0.0762
 70
0
  0
VERTEX
  8
21
 10
33.7446
 20
-11.7279
 30
0.0000
 42
1.0000
  0
VERTEX
  8
21
 10
33.7446
 20
-11.8041
 30
0.0000
  0
SEQEND
  8
0
  0
POLYLINE
  8
21
 66
1
 10
0.0000
 20
0.0000
 30
0.0000
 40
0.0762
 41
0.0762
 70
0
  0
VERTEX
  8
21
 10
34.0367
 20
-11.5120
 30
0.0000
 42
1.0000
  0
VERTEX
  8
21
 10
33.9605
 20
-11.5120
 30
0.0000
  0
SEQEND
  8
0
  0
POLYLINE
  8
21
 66
1
 10
0.0000
 20
0.0000
 30
0.0000
 40
0.1524
 41
0.1524
 70
0
  0
VERTEX
  8
21
 10
33.9986
 20
-11.5120
 30
0.0000
  0
VERTEX
  8
21
 10
33.9986
 20
-9.9880
 30
0.0000
  0
SEQEND
  8
0
  0
POLYLINE
  8
21
 66
1
 10
0.0000
 20
0.0000
 30
0.0000
 40
0.0762
 41
0.0762
 70
0
  0
VERTEX
  8
21
 10
34.0367
 20
-9.9880
 30
0.0000
 42
1.0000
  0
VERTEX
  8
21
 10
33.9605
 20
-9.9880
 30
0.0000
  0
SEQEND
  8
0
  0
POLYLINE
  8
21
 66
1
 10
0.0000
 20
0.0000
 30
0.0000
 40
0.0762
 41
0.0762
 70
0
  0
VERTEX
  8
21
 10
33.9605
 20
-11.5120
 30
0.0000
 42
1.0000
  0
VERTEX
  8
21
 10
34.0367
 20
-11.5120
 30
0.0000
  0
SEQEND
  8
0
  0
POLYLINE
  8
21
 66
1
 10
0.0000
 20
0.0000
 30
0.0000
 40
0.1524
 41
0.1524
 70
0
  0
VERTEX
  8
21
 10
31.0014
 20
-11.5120
 30
0.0000
  0
VERTEX
  8
21
 10
31.0014
 20
-9.9880
 30
0.0000
  0
SEQEND
  8
0
  0
POLYLINE
  8
21
 66
1
 10
0.0000
 20
0.0000
 30
0.0000
 40
0.0762
 41
0.0762
 70
0
  0
VERTEX
  8
21
 10
31.0395
 20
-9.9880
 30
0.0000
 42
1.0000
  0
VERTEX
  8
21
 10
30.9633
 20
-9.9880
 30
0.0000
  0
SEQEND
  8
0
  0
POLYLINE
  8
21
 66
1
 10
0.0000
 20
0.0000
 30
0.0000
 40
0.0762
 41
0.0762
 70
0
  0
VERTEX
  8
21
 10
30.9633
 20
-11.5120
 30
0.0000
 42
1.0000
  0
VERTEX
  8
21
 10
31.0395
 20
-11.5120
 30
0.0000
  0
SEQEND
  8
0
  0
POLYLINE
  8
21
 66
1
 10
0.0000
 20
0.0000
 30
0.0000
 40
0.1524
 41
0.1524
 70
0
  0
VERTEX
  8
21
 10
31.2554
 20
-9.7340
 30
0.0000
  0
VERTEX
  8
21
 10
33.7446
 20
-9.7340
 30
0.0000
  0
SEQEND
  8
0
  0
POLYLINE
  8
21
 66
1
 10
0.0000
 20
0.0000
 30
0.0000
 40
0.0762
 41
0.0762
 70
0
  0
VERTEX
  8
21
 10
33.7446
 20
-9.7721
 30
0.0000
 42
1.0000
  0
VERTEX
  8
21
 10
33.7446
 20
-9.6959
 30
0.0000
  0
SEQEND
  8
0
  0
POLYLINE
  8
21
 66
1
 10
0.0000
 20
0.0000
 30
0.0000
 40
0.0762
 41
0.0762
 70
0
  0
VERTEX
  8
21
 10
31.2554
 20
-9.6959
 30
0.0000
 42
1.0000
  0
VERTEX
  8
21
 10
31.2554
 20
-9.7721
 30
0.0000
  0
SEQEND
  8
0
  0
POLYLINE
  8
51
 66
1
 10
0.0000
 20
0.0000
 30
0.0000
 40
0.1524
 41
0.1524
 70
0
  0
VERTEX
  8
51
 10
33.5160
 20
-10.7500
 30
0.0000
  0
VERTEX
  8
51
 10
33.8716
 20
-10.7500
 30
0.0000
  0
SEQEND
  8
0
  0
POLYLINE
  8
51
 66
1
 10
0.0000
 20
0.0000
 30
0.0000
 40
0.0762
 41
0.0762
 70
0
  0
VERTEX
  8
51
 10
33.8716
 20
-10.7881
 30
0.0000
 42
1.0000
  0
VERTEX
  8
51
 10
33.8716
 20
-10.7119
 30
0.0000
  0
SEQEND
  8
0
  0
POLYLINE
  8
51
 66
1
 10
0.0000
 20
0.0000
 30
0.0000
 40
0.0762
 41
0.0762
 70
0
  0
VERTEX
  8
51
 10
33.5160
 20
-10.7119
 30
0.0000
 42
1.0000
  0
VERTEX
  8
51
 10
33.5160
 20
-10.7881
 30
0.0000
  0
SEQEND
  8
0
  0
POLYLINE
  8
51
 66
1
 10
0.0000
 20
0.0000
 30
0.0000
 40
0.1524
 41
0.1524
 70
0
  0
VERTEX
  8
51
 10
31.6364
 20
-10.7500
 30
0.0000
  0
VERTEX
  8
51
 10
31.1284
 20
-10.7500
 30
0.0000
  0
SEQEND
  8
0
  0
POLYLINE
  8
51
 66
1
 10
0.0000
 20
0.0000
 30
0.0000
 40
0.0762
 41
0.0762
 70
0
  0
VERTEX
  8
51
 10
31.1284
 20
-10.7119
 30
0.0000
 42
1.0000
  0
VERTEX
  8
51
 10
31.1284
 20
-10.7881
 30
0.0000
  0
SEQEND
  8
0
  0
POLYLINE
  8
51
 66
1
 10
0.0000
 20
0.0000
 30
0.0000
 40
0.0762
 41
0.0762
 70
0
  0
VERTEX
  8
51
 10
31.6364
 20
-10.7881
 30
0.0000
 42
1.0000
  0
VERTEX
  8
51
 10
31.6364
 20
-10.7119
 30
0.0000
  0
SEQEND
  8
0
  0
POLYLINE
  8
51
 66
1
 10
0.0000
 20
0.0000
 30
0.0000
 40
1.2700
 41
1.2700
 70
0
  0
VERTEX
  8
51
 10
32.2460
 20
-10.6230
 30
0.0000
 42
1.0000
  0
VERTEX
  8
51
 10
32.2460
 20
-10.8770
 30
0.0000
  0
SEQEND
  8
0
  0
POLYLINE
  8
51
 66
1
 10
0.0000
 20
0.0000
 30
0.0000
 40
1.2700
 41
1.2700
 70
0
  0
VERTEX
  8
51
 10
32.7540
 20
-10.8770
 30
0.0000
 42
1.0000
  0
VERTEX
  8
51
 10
32.7540
 20
-10.6230
 30
0.0000
  0
SEQEND
  8
0
  0
POLYLINE
  8
51
 66
1
 10
0.0000
 20
0.0000
 30
0.0000
 40
0.0126
 41
0.0126
 70
0
  0
VERTEX
  8
51
 10
28.3600
 20
9.1270
 30
0.0000
  0
VERTEX
  8
51
 10
28.3600
 20
8.8730
 30
0.0000
  0
SEQEND
  8
0
  0
POLYLINE
  8
51
 66
1
 10
0.0000
 20
0.0000
 30
0.0000
 40
0.0063
 41
0.0063
 70
0
  0
VERTEX
  8
51
 10
28.3569
 20
8.8730
 30
0.0000
 42
1.0000
  0
VERTEX
  8
51
 10
28.3632
 20
8.8730
 30
0.0000
  0
SEQEND
  8
0
  0
POLYLINE
  8
51
 66
1
 10
0.0000
 20
0.0000
 30
0.0000
 40
0.0063
 41
0.0063
 70
0
  0
VERTEX
  8
51
 10
28.3632
 20
9.1270
 30
0.0000
 42
1.0000
  0
VERTEX
  8
51
 10
28.3569
 20
9.1270
 30
0.0000
  0
SEQEND
  8
0
  0
POLYLINE
  8
51
 66
1
 10
0.0000
 20
0.0000
 30
0.0000
 40
0.0126
 41
0.0126
 70
0
  0
VERTEX
  8
51
 10
28.2330
 20
9.0000
 30
0.0000
  0
VERTEX
  8
51
 10
28.4870
 20
9.0000
 30
0.0000
  0
SEQEND
  8
0
  0
POLYLINE
  8
51
 66
1
 10
0.0000
 20
0.0000
 30
0.0000
 40
0.0063
 41
0.0063
 70
0
  0
VERTEX
  8
51
 10
28.4870
 20
8.9969
 30
0.0000
 42
1.0000
  0
VERTEX
  8
51
 10
28.4870
 20
9.0031
 30
0.0000
  0
SEQEND
  8
0
  0
POLYLINE
  8
51
 66
1
 10
0.0000
 20
0.0000
 30
0.0000
 40
0.0063
 41
0.0063
 70
0
  0
VERTEX
  8
51
 10
28.2330
 20
9.0031
 30
0.0000
 42
1.0000
  0
VERTEX
  8
51
 10
28.2330
 20
8.9969
 30
0.0000
  0
SEQEND
  8
0
  0
CIRCLE
  8
20
 10
28.3600
 20
9.0000
 30
0.0000
 40
0.4500
  0
CIRCLE
  8
20
 10
33.4400
 20
10.0160
 30
0.0000
 40
0.4500
  0
CIRCLE
  8
20
 10
33.4400
 20
7.9840
 30
0.0000
 40
0.4500
  0
POLYLINE
  8
21
 66
1
 10
0.0000
 20
0.0000
 30
0.0000
 40
0.1524
 41
0.1524
 70
0
  0
VERTEX
  8
21
 10
14.3750
 20
3.9250
 30
0.0000
  0
VERTEX
  8
21
 10
6.6250
 20
3.9250
 30
0.0000
  0
SEQEND
  8
0
  0
POLYLINE
  8
21
 66
1
 10
0.0000
 20
0.0000
 30
0.0000
 40
0.0762
 41
0.0762
 70
0
  0
VERTEX
  8
21
 10
6.6250
 20
3.9631
 30
0.0000
 42
1.0000
  0
VERTEX
  8
21
 10
6.6250
 20
3.8869
 30
0.0000
  0
SEQEND
  8
0
  0
POLYLINE
  8
21
 66
1
 10
0.0000
 20
0.0000
 30
0.0000
 40
0.0762
 41
0.0762
 70
0
  0
VERTEX
  8
21
 10
14.3750
 20
3.8869
 30
0.0000
 42
1.0000
  0
VERTEX
  8
21
 10
14.3750
 20
3.9631
 30
0.0000
  0
SEQEND
  8
0
  0
POLYLINE
  8
21
 66
1
 10
0.0000
 20
0.0000
 30
0.0000
 40
0.1524
 41
0.1524
 70
0
  0
VERTEX
  8
21
 10
6.6250
 20
-0.4250
 30
0.0000
  0
VERTEX
  8
21
 10
6.6250
 20
3.9250
 30
0.0000
  0
SEQEND
  8
0
  0
POLYLINE
  8
21
 66
1
 10
0.0000
 20
0.0000
 30
0.0000
 40
0.0762
 41
0.0762
 70
0
  0
VERTEX
  8
21
 10
6.6631
 20
3.9250
 30
0.0000
 42
1.0000
  0
VERTEX
  8
21
 10
6.5869
 20
3.9250
 30
0.0000
  0
SEQEND
  8
0
  0
POLYLINE
  8
21
 66
1
 10
0.0000
 20
0.0000
 30
0.0000
 40
0.0762
 41
0.0762
 70
0
  0
VERTEX
  8
21
 10
6.5869
 20
-0.4250
 30
0.0000
 42
1.0000
  0
VERTEX
  8
21
 10
6.6631
 20
-0.4250
 30
0.0000
  0
SEQEND
  8
0
  0
POLYLINE
  8
21
 66
1
 10
0.0000
 20
0.0000
 30
0.0000
 40
0.1524
 41
0.1524
 70
0
  0
VERTEX
  8
21
 10
6.6250
 20
-0.4250
 30
0.0000
  0
VERTEX
  8
21
 10
14.3750
 20
-0.4250
 30
0.0000
  0
SEQEND
  8
0
  0
POLYLINE
  8
21
 66
1
 10
0.0000
 20
0.0000
 30
0.0000
 40
0.0762
 41
0.0762
 70
0
  0
VERTEX
  8
21
 10
14.3750
 20
-0.4631
 30
0.0000
 42
1.0000
  0
VERTEX
  8
21
 10
14.3750
 20
-0.3869
 30
0.0000
  0
SEQEND
  8
0
  0
POLYLINE
  8
21
 66
1
 10
0.0000
 20
0.0000
 30
0.0000
 40
0.0762
 41
0.0762
 70
0
  0
VERTEX
  8
21
 10
6.6250
 20
-0.3869
 30
0.0000
 42
1.0000
  0
VERTEX
  8
21
 10
6.6250
 20
-0.4631
 30
0.0000
  0
SEQEND
  8
0
  0
POLYLINE
  8
21
 66
1
 10
0.0000
 20
0.0000
 30
0.0000
 40
0.1524
 41
0.1524
 70
0
  0
VERTEX
  8
21
 10
14.3750
 20
3.9250
 30
0.0000
  0
VERTEX
  8
21
 10
14.3750
 20
-0.4250
 30
0.0000
  0
SEQEND
  8
0
  0
POLYLINE
  8
21
 66
1
 10
0.0000
 20
0.0000
 30
0.0000
 40
0.0762
 41
0.0762
 70
0
  0
VERTEX
  8
21
 10
14.3369
 20
-0.4250
 30
0.0000
 42
1.0000
  0
VERTEX
  8
21
 10
14.4131
 20
-0.4250
 30
0.0000
  0
SEQEND
  8
0
  0
POLYLINE
  8
21
 66
1
 10
0.0000
 20
0.0000
 30
0.0000
 40
0.0762
 41
0.0762
 70
0
  0
VERTEX
  8
21
 10
14.4131
 20
3.9250
 30
0.0000
 42
1.0000
  0
VERTEX
  8
21
 10
14.3369
 20
3.9250
 30
0.0000
  0
SEQEND
  8
0
  0
POLYLINE
  8
21
 66
1
 10
0.0000
 20
0.0000
 30
0.0000
 40
0.1524
 41
0.1524
 70
0
  0
VERTEX
  8
21
 10
13.6506
 20
2.9419
 30
0.0000
 42
1.0000
  0
VERTEX
  8
21
 10
13.6506
 20
3.4965
 30
0.0000
 42
1.0000
  0
VERTEX
  8
21
 10
13.6506
 20
2.9419
 30
0.0000
  0
SEQEND
  8
0
  0
INSERT
  8
51
  2
RECT
 10
14.0750
 20
4.4355
 30
0.0000
 41
0.2032
 42
0.8710
 43
1.0000
 50
180.0000
  0
INSERT
  8
51
  2
RECT
 10
13.4250
 20
4.4355
 30
0.0000
 41
0.2032
 42
0.8710
 43
1.0000
 50
180.0000
  0
INSERT
  8
51
  2
RECT
 10
12.7750
 20
4.4355
 30
0.0000
 41
0.2032
 42
0.8710
 43
1.0000
 50
180.0000
  0
INSERT
  8
51
  2
RECT
 10
12.1250
 20
4.4355
 30
0.0000
 41
0.2032
 42
0.8710
 43
1.0000
 50
180.0000
  0
INSERT
  8
51
  2
RECT
 10
11.4750
 20
4.4355
 30
0.0000
 41
0.2032
 42
0.8710
 43
1.0000
 50
180.0000
  0
INSERT
  8
51
  2
RECT
 10
10.8250
 20
4.4355
 30
0.0000
 41
0.2032
 42
0.8710
 43
1.0000
 50
180.0000
  0
INSERT
  8
51
  2
RECT
 10
10.1750
 20
4.4355
 30
0.0000
 41
0.2032
 42
0.8710
 43
1.0000
 50
180.0000
  0
INSERT
  8
51
  2
RECT
 10
9.5250
 20
4.4355
 30
0.0000
 41
0.2032
 42
0.8710
 43
1.0000
 50
180.0000
  0
INSERT
  8
51
  2
RECT
 10
8.8750
 20
4.4355
 30
0.0000
 41
0.2032
 42
0.8710
 43
1.0000
 50
180.0000
  0
INSERT
  8
51
  2
RECT
 10
8.2250
 20
4.4355
 30
0.0000
 41
0.2032
 42
0.8710
 43
1.0000
 50
180.0000
  0
INSERT
  8
51
  2
RECT
 10
7.5750
 20
4.4355
 30
0.0000
 41
0.2032
 42
0.8710
 43
1.0000
 50
180.0000
  0
INSERT
  8
51
  2
RECT
 10
6.9250
 20
4.4355
 30
0.0000
 41
0.2032
 42
0.8710
 43
1.0000
 50
180.0000
  0
INSERT
  8
51
  2
RECT
 10
6.9250
 20
-0.9355
 30
0.0000
 41
0.2032
 42
0.8710
 43
1.0000
 50
180.0000
  0
INSERT
  8
51
  2
RECT
 10
7.5750
 20
-0.9355
 30
0.0000
 41
0.2032
 42
0.8710
 43
1.0000
 50
180.0000
  0
INSERT
  8
51
  2
RECT
 10
8.2250
 20
-0.9355
 30
0.0000
 41
0.2032
 42
0.8710
 43
1.0000
 50
180.0000
  0
INSERT
  8
51
  2
RECT
 10
8.8750
 20
-0.9355
 30
0.0000
 41
0.2032
 42
0.8710
 43
1.0000
 50
180.0000
  0
INSERT
  8
51
  2
RECT
 10
9.5250
 20
-0.9355
 30
0.0000
 41
0.2032
 42
0.8710
 43
1.0000
 50
180.0000
  0
INSERT
  8
51
  2
RECT
 10
10.1750
 20
-0.9355
 30
0.0000
 41
0.2032
 42
0.8710
 43
1.0000
 50
180.0000
  0
INSERT
  8
51
  2
RECT
 10
10.8250
 20
-0.9355
 30
0.0000
 41
0.2032
 42
0.8710
 43
1.0000
 50
180.0000
  0
INSERT
  8
51
  2
RECT
 10
11.4750
 20
-0.9355
 30
0.0000
 41
0.2032
 42
0.8710
 43
1.0000
 50
180.0000
  0
INSERT
  8
51
  2
RECT
 10
12.1250
 20
-0.9355
 30
0.0000
 41
0.2032
 42
0.8710
 43
1.0000
 50
180.0000
  0
INSERT
  8
51
  2
RECT
 10
12.7750
 20
-0.9355
 30
0.0000
 41
0.2032
 42
0.8710
 43
1.0000
 50
180.0000
  0
INSERT
  8
51
  2
RECT
 10
13.4250
 20
-0.9355
 30
0.0000
 41
0.2032
 42
0.8710
 43
1.0000
 50
180.0000
  0
INSERT
  8
51
  2
RECT
 10
14.0750
 20
-0.9355
 30
0.0000
 41
0.2032
 42
0.8710
 43
1.0000
 50
180.0000
  0
POLYLINE
  8
21
 66
1
 10
0.0000
 20
0.0000
 30
0.0000
 40
0.2032
 41
0.2032
 70
0
  0
VERTEX
  8
21
 10
25.1000
 20
3.4000
 30
0.0000
  0
VERTEX
  8
21
 10
14.9000
 20
3.4000
 30
0.0000
  0
SEQEND
  8
0
  0
POLYLINE
  8
21
 66
1
 10
0.0000
 20
0.0000
 30
0.0000
 40
0.1016
 41
0.1016
 70
0
  0
VERTEX
  8
21
 10
14.9000
 20
3.4508
 30
0.0000
 42
1.0000
  0
VERTEX
  8
21
 10
14.9000
 20
3.3492
 30
0.0000
  0
SEQEND
  8
0
  0
POLYLINE
  8
21
 66
1
 10
0.0000
 20
0.0000
 30
0.0000
 40
0.1016
 41
0.1016
 70
0
  0
VERTEX
  8
21
 10
25.1000
 20
3.3492
 30
0.0000
 42
1.0000
  0
VERTEX
  8
21
 10
25.1000
 20
3.4508
 30
0.0000
  0
SEQEND
  8
0
  0
POLYLINE
  8
21
 66
1
 10
0.0000
 20
0.0000
 30
0.0000
 40
0.2032
 41
0.2032
 70
0
  0
VERTEX
  8
21
 10
14.9000
 20
3.4000
 30
0.0000
  0
VERTEX
  8
21
 10
14.9000
 20
-1.8000
 30
0.0000
  0
SEQEND
  8
0
  0
POLYLINE
  8
21
 66
1
 10
0.0000
 20
0.0000
 30
0.0000
 40
0.1016
 41
0.1016
 70
0
  0
VERTEX
  8
21
 10
14.8492
 20
-1.8000
 30
0.0000
 42
1.0000
  0
VERTEX
  8
21
 10
14.9508
 20
-1.8000
 30
0.0000
  0
SEQEND
  8
0
  0
POLYLINE
  8
21
 66
1
 10
0.0000
 20
0.0000
 30
0.0000
 40
0.1016
 41
0.1016
 70
0
  0
VERTEX
  8
21
 10
14.9508
 20
3.4000
 30
0.0000
 42
1.0000
  0
VERTEX
  8
21
 10
14.8492
 20
3.4000
 30
0.0000
  0
SEQEND
  8
0
  0
POLYLINE
  8
21
 66
1
 10
0.0000
 20
0.0000
 30
0.0000
 40
0.2032
 41
0.2032
 70
0
  0
VERTEX
  8
21
 10
14.9000
 20
-1.8000
 30
0.0000
  0
VERTEX
  8
21
 10
25.1000
 20
-1.8000
 30
0.0000
  0
SEQEND
  8
0
  0
POLYLINE
  8
21
 66
1
 10
0.0000
 20
0.0000
 30
0.0000
 40
0.1016
 41
0.1016
 70
0
  0
VERTEX
  8
21
 10
25.1000
 20
-1.8508
 30
0.0000
 42
1.0000
  0
VERTEX
  8
21
 10
25.1000
 20
-1.7492
 30
0.0000
  0
SEQEND
  8
0
  0
POLYLINE
  8
21
 66
1
 10
0.0000
 20
0.0000
 30
0.0000
 40
0.1016
 41
0.1016
 70
0
  0
VERTEX
  8
21
 10
14.9000
 20
-1.7492
 30
0.0000
 42
1.0000
  0
VERTEX
  8
21
 10
14.9000
 20
-1.8508
 30
0.0000
  0
SEQEND
  8
0
  0
POLYLINE
  8
21
 66
1
 10
0.0000
 20
0.0000
 30
0.0000
 40
0.2032
 41
0.2032
 70
0
  0
VERTEX
  8
21
 10
25.1054
 20
-1.7654
 30
0.0000
  0
VERTEX
  8
21
 10
25.1054
 20
3.3908
 30
0.0000
  0
SEQEND
  8
0
  0
POLYLINE
  8
21
 66
1
 10
0.0000
 20
0.0000
 30
0.0000
 40
0.1016
 41
0.1016
 70
0
  0
VERTEX
  8
21
 10
25.1562
 20
3.3908
 30
0.0000
 42
1.0000
  0
VERTEX
  8
21
 10
25.0546
 20
3.3908
 30
0.0000
  0
SEQEND
  8
0
  0
POLYLINE
  8
21
 66
1
 10
0.0000
 20
0.0000
 30
0.0000
 40
0.1016
 41
0.1016
 70
0
  0
VERTEX
  8
21
 10
25.0546
 20
-1.7654
 30
0.0000
 42
1.0000
  0
VERTEX
  8
21
 10
25.1562
 20
-1.7654
 30
0.0000
  0
SEQEND
  8
0
  0
POLYLINE
  8
21
 66
1
 10
0.0000
 20
0.0000
 30
0.0000
 40
0.2032
 41
0.2032
 70
0
  0
VERTEX
  8
21
 10
24.1148
 20
1.9425
 30
0.0000
 42
1.0000
  0
VERTEX
  8
21
 10
24.1148
 20
3.0611
 30
0.0000
 42
1.0000
  0
VERTEX
  8
21
 10
24.1148
 20
1.9425
 30
0.0000
  0
SEQEND
  8
0
  0
INSERT
  8
51
  2
RECT
 10
24.2250
 20
4.0893
 30
0.0000
 41
0.3556
 42
1.2954
 43
1.0000
 50
180.0000
  0
INSERT
  8
51
  2
RECT
 10
23.5751
 20
4.0893
 30
0.0000
 41
0.3556
 42
1.2954
 43
1.0000
 50
180.0000
  0
INSERT
  8
51
  2
RECT
 10
22.9251
 20
4.0893
 30
0.0000
 41
0.3556
 42
1.2954
 43
1.0000
 50
180.0000
  0
INSERT
  8
51
  2
RECT
 10
22.2751
 20
4.0893
 30
0.0000
 41
0.3556
 42
1.2954
 43
1.0000
 50
180.0000
  0
INSERT
  8
51
  2
RECT
 10
21.6251
 20
4.0893
 30
0.0000
 41
0.3556
 42
1.2954
 43
1.0000
 50
180.0000
  0
INSERT
  8
51
  2
RECT
 10
20.9751
 20
4.0893
 30
0.0000
 41
0.3556
 42
1.2954
 43
1.0000
 50
180.0000
  0
INSERT
  8
51
  2
RECT
 10
20.3251
 20
4.0893
 30
0.0000
 41
0.3556
 42
1.2954
 43
1.0000
 50
180.0000
  0
INSERT
  8
51
  2
RECT
 10
19.6749
 20
4.0893
 30
0.0000
 41
0.3556
 42
1.2954
 43
1.0000
 50
180.0000
  0
INSERT
  8
51
  2
RECT
 10
19.0249
 20
4.0893
 30
0.0000
 41
0.3556
 42
1.2954
 43
1.0000
 50
180.0000
  0
INSERT
  8
51
  2
RECT
 10
18.3749
 20
4.0893
 30
0.0000
 41
0.3556
 42
1.2954
 43
1.0000
 50
180.0000
  0
INSERT
  8
51
  2
RECT
 10
17.7249
 20
4.0893
 30
0.0000
 41
0.3556
 42
1.2954
 43
1.0000
 50
180.0000
  0
INSERT
  8
51
  2
RECT
 10
17.0749
 20
4.0893
 30
0.0000
 41
0.3556
 42
1.2954
 43
1.0000
 50
180.0000
  0
INSERT
  8
51
  2
RECT
 10
16.4249
 20
4.0893
 30
0.0000
 41
0.3556
 42
1.2954
 43
1.0000
 50
180.0000
  0
INSERT
  8
51
  2
RECT
 10
15.7750
 20
4.0893
 30
0.0000
 41
0.3556
 42
1.2954
 43
1.0000
 50
180.0000
  0
INSERT
  8
51
  2
RECT
 10
15.7750
 20
-2.4893
 30
0.0000
 41
0.3556
 42
1.2954
 43
1.0000
 50
180.0000
  0
INSERT
  8
51
  2
RECT
 10
16.4249
 20
-2.4893
 30
0.0000
 41
0.3556
 42
1.2954
 43
1.0000
 50
180.0000
  0
INSERT
  8
51
  2
RECT
 10
17.0749
 20
-2.4893
 30
0.0000
 41
0.3556
 42
1.2954
 43
1.0000
 50
180.0000
  0
INSERT
  8
51
  2
RECT
 10
17.7249
 20
-2.4893
 30
0.0000
 41
0.3556
 42
1.2954
 43
1.0000
 50
180.0000
  0
INSERT
  8
51
  2
RECT
 10
18.3749
 20
-2.4893
 30
0.0000
 41
0.3556
 42
1.2954
 43
1.0000
 50
180.0000
  0
INSERT
  8
51
  2
RECT
 10
19.0249
 20
-2.4893
 30
0.0000
 41
0.3556
 42
1.2954
 43
1.0000
 50
180.0000
  0
INSERT
  8
51
  2
RECT
 10
19.6749
 20
-2.4893
 30
0.0000
 41
0.3556
 42
1.2954
 43
1.0000
 50
180.0000
  0
INSERT
  8
51
  2
RECT
 10
20.3251
 20
-2.4893
 30
0.0000
 41
0.3556
 42
1.2954
 43
1.0000
 50
180.0000
  0
INSERT
  8
51
  2
RECT
 10
20.9751
 20
-2.4893
 30
0.0000
 41
0.3556
 42
1.2954
 43
1.0000
 50
180.0000
  0
INSERT
  8
51
  2
RECT
 10
21.6251
 20
-2.4893
 30
0.0000
 41
0.3556
 42
1.2954
 43
1.0000
 50
180.0000
  0
INSERT
  8
51
  2
RECT
 10
22.2751
 20
-2.4893
 30
0.0000
 41
0.3556
 42
1.2954
 43
1.0000
 50
180.0000
  0
INSERT
  8
51
  2
RECT
 10
22.9251
 20
-2.4893
 30
0.0000
 41
0.3556
 42
1.2954
 43
1.0000
 50
180.0000
  0
INSERT
  8
51
  2
RECT
 10
23.5751
 20
-2.4893
 30
0.0000
 41
0.3556
 42
1.2954
 43
1.0000
 50
180.0000
  0
INSERT
  8
51
  2
RECT
 10
24.2250
 20
-2.4893
 30
0.0000
 41
0.3556
 42
1.2954
 43
1.0000
 50
180.0000
  0
ENDSEC
  0
EOF
