  0
SECTION
  2
HEADER
  9
$ACADVER
  1
AC1009
  9
$FILLMODE
 70
0
  9
$EXTMIN
 10
0.0000
 20
0.0000
 30
0.0000
  9
$EXTMAX
 10
64.0000
 20
33.0240
 30
0.0000
  0
ENDSEC
  0
SECTION
  2
TABLES
  0
TABLE
  2
LTYPE
 70
1
  0
LTYPE
  2
CONTINUOUS
 70
64
  3
Solid line
 72
65
 73
0
 40
0
  0
ENDTAB
  0
TABLE
  2
LAYER
 70
255
  0
LAYER
  2
17
 70
64
 62
82
  6
CONTINUOUS
  0
LAYER
  2
20
 70
64
 62
7
  6
CONTINUOUS
  0
LAYER
  2
21
 70
64
 62
253
  6
CONTINUOUS
  0
LAYER
  2
26
 70
64
 62
253
  6
CONTINUOUS
  0
LAYER
  2
28
 70
64
 62
253
  6
CONTINUOUS
  0
ENDTAB
  0
ENDSEC
  0
SECTION
  2
BLOCKS
  0
BLOCK
  8
0
  2
RECT
 70
64
 10
0.0000
 20
0.0000
 30
0.0000
  3
RECT
  0
SOLID
  8
0
 10
-0.5000
 20
-0.5000
 30
0.0000
 11
0.5000
 21
-0.5000
 31
0.0000
 12
-0.5000
 22
0.5000
 32
0.0000
 13
0.5000
 23
0.5000
 33
0.0000
  0
ENDBLK
  8
0
  0
BLOCK
  8
0
  2
PIE
 70
64
 10
0.0000
 20
0.0000
 30
0.0000
  3
PIE
  0
CIRCLE
  8
0
 10
0.0000
 20
0.0000
 30
0.0000
 40
0.5000
  0
ENDBLK
  8
0
  0
BLOCK
  8
0
  2
OCTAGONP
 70
64
 10
0.0000
 20
0.0000
 30
0.0000
  3
OCTAGONP
  0
POLYLINE
  8
0
 66
1
 10
0.0000
 20
0.0000
 30
0.0000
 40
0.0000
 41
0.0000
 70
1
  0
VERTEX
  8
0
 10
-0.5000
 20
-0.2071
 30
0.0000
  0
VERTEX
  8
0
 10
-0.5000
 20
0.2071
 30
0.0000
  0
VERTEX
  8
0
 10
-0.2071
 20
0.5000
 30
0.0000
  0
VERTEX
  8
0
 10
0.2071
 20
0.5000
 30
0.0000
  0
VERTEX
  8
0
 10
0.5000
 20
0.2071
 30
0.0000
  0
VERTEX
  8
0
 10
0.5000
 20
-0.2071
 30
0.0000
  0
VERTEX
  8
0
 10
0.2071
 20
-0.5000
 30
0.0000
  0
VERTEX
  8
0
 10
-0.2071
 20
-0.5000
 30
0.0000
  0
SEQEND
  8
0
  0
ENDBLK
  8
0
  0
BLOCK
  8
0
  2
SQUAREP
 70
64
 10
0.0000
 20
0.0000
 30
0.0000
  3
SQUAREP
  0
SOLID
  8
0
 10
-0.5000
 20
-0.5000
 30
0.0000
 11
0.5000
 21
-0.5000
 31
0.0000
 12
-0.5000
 22
0.5000
 32
0.0000
 13
0.5000
 23
0.5000
 33
0.0000
  0
ENDBLK
  8
0
  0
BLOCK
  8
0
  2
ROUNDP
 70
64
 10
0.0000
 20
0.0000
 30
0.0000
  3
ROUNDP
  0
CIRCLE
  8
0
 10
0.0000
 20
0.0000
 30
0.0000
 40
0.5000
  0
ENDBLK
  8
0
  0
BLOCK
  8
0
  2
ANNULUSP
 70
64
 10
0.0000
 20
0.0000
 30
0.0000
  3
ANNULUSP
  0
CIRCLE
  8
0
 10
0.0000
 20
0.0000
 30
0.0000
 40
0.5000
  0
ENDBLK
  8
0
  0
BLOCK
  8
0
  2
THERMALP
 70
64
 10
0.0000
 20
0.0000
 30
0.0000
  3
THERMALP
  0
LINE
  8
0
 10
-0.2379
 20
0.4500
 30
0.0000
 11
0.2379
 21
0.4500
 31
0.0000
  0
LINE
  8
0
 10
0.4500
 20
0.2379
 30
0.0000
 11
0.4500
 21
-0.2379
 31
0.0000
  0
LINE
  8
0
 10
0.2379
 20
-0.4500
 30
0.0000
 11
-0.2379
 21
-0.4500
 31
0.0000
  0
LINE
  8
0
 10
-0.4500
 20
-0.2379
 30
0.0000
 11
-0.4500
 21
0.2379
 31
0.0000
  0
ENDBLK
  8
0
  0
BLOCK
  8
0
  2
OCTAGONV
 70
64
 10
0.0000
 20
0.0000
 30
0.0000
  3
OCTAGONV
  0
POLYLINE
  8
0
 66
1
 10
0.0000
 20
0.0000
 30
0.0000
 40
0.0000
 41
0.0000
 70
1
  0
VERTEX
  8
0
 10
-0.5000
 20
-0.2071
 30
0.0000
  0
VERTEX
  8
0
 10
-0.5000
 20
0.2071
 30
0.0000
  0
VERTEX
  8
0
 10
-0.2071
 20
0.5000
 30
0.0000
  0
VERTEX
  8
0
 10
0.2071
 20
0.5000
 30
0.0000
  0
VERTEX
  8
0
 10
0.5000
 20
0.2071
 30
0.0000
  0
VERTEX
  8
0
 10
0.5000
 20
-0.2071
 30
0.0000
  0
VERTEX
  8
0
 10
0.2071
 20
-0.5000
 30
0.0000
  0
VERTEX
  8
0
 10
-0.2071
 20
-0.5000
 30
0.0000
  0
SEQEND
  8
0
  0
ENDBLK
  8
0
  0
BLOCK
  8
0
  2
SQUAREV
 70
64
 10
0.0000
 20
0.0000
 30
0.0000
  3
SQUAREV
  0
SOLID
  8
0
 10
-0.5000
 20
-0.5000
 30
0.0000
 11
0.5000
 21
-0.5000
 31
0.0000
 12
-0.5000
 22
0.5000
 32
0.0000
 13
0.5000
 23
0.5000
 33
0.0000
  0
ENDBLK
  8
0
  0
BLOCK
  8
0
  2
ROUNDV
 70
64
 10
0.0000
 20
0.0000
 30
0.0000
  3
ROUNDV
  0
CIRCLE
  8
0
 10
0.0000
 20
0.0000
 30
0.0000
 40
0.5000
  0
ENDBLK
  8
0
  0
BLOCK
  8
0
  2
ANNULUSV
 70
64
 10
0.0000
 20
0.0000
 30
0.0000
  3
ANNULUSV
  0
CIRCLE
  8
0
 10
0.0000
 20
0.0000
 30
0.0000
 40
0.5000
  0
ENDBLK
  8
0
  0
BLOCK
  8
0
  2
THERMALV
 70
64
 10
0.0000
 20
0.0000
 30
0.0000
  3
THERMALV
  0
LINE
  8
0
 10
-0.2379
 20
0.4500
 30
0.0000
 11
0.2379
 21
0.4500
 31
0.0000
  0
LINE
  8
0
 10
0.4500
 20
0.2379
 30
0.0000
 11
0.4500
 21
-0.2379
 31
0.0000
  0
LINE
  8
0
 10
0.2379
 20
-0.4500
 30
0.0000
 11
-0.2379
 21
-0.4500
 31
0.0000
  0
LINE
  8
0
 10
-0.4500
 20
-0.2379
 30
0.0000
 11
-0.4500
 21
0.2379
 31
0.0000
  0
ENDBLK
  8
0
  0
ENDSEC
  0
SECTION
  2
ENTITIES
  0
ARC
  8
20
 10
60.5000
 20
29.5000
 30
0.0000
 40
3.5000
 50
0.0000
 51
90.0000
  0
LINE
  8
20
 10
60.5000
 20
33.0000
 30
0.0000
 11
42.6800
 21
33.0000
 31
0.0000
  0
ARC
  8
20
 10
42.6800
 20
31.8000
 30
0.0000
 40
1.2000
 50
90.0000
 51
180.0000
  0
LINE
  8
20
 10
41.4800
 20
31.8000
 30
0.0000
 11
41.4800
 21
22.8375
 31
0.0000
  0
ARC
  8
20
 10
40.2800
 20
22.8375
 30
0.0000
 40
1.2000
 50
270.0000
 51
0.0000
  0
LINE
  8
20
 10
40.2800
 20
21.6375
 30
0.0000
 11
18.5500
 21
21.6375
 31
0.0000
  0
ARC
  8
20
 10
18.5500
 20
22.8375
 30
0.0000
 40
1.2000
 50
180.0000
 51
270.0000
  0
LINE
  8
20
 10
17.3500
 20
22.8375
 30
0.0000
 11
17.3500
 21
31.8000
 31
0.0000
  0
ARC
  8
20
 10
16.1500
 20
31.8000
 30
0.0000
 40
1.2000
 50
0.0000
 51
90.0000
  0
LINE
  8
20
 10
16.1500
 20
33.0000
 30
0.0000
 11
3.5000
 21
33.0000
 31
0.0000
  0
ARC
  8
20
 10
3.5000
 20
29.5000
 30
0.0000
 40
3.5000
 50
90.0000
 51
180.0000
  0
LINE
  8
20
 10
0.0000
 20
29.5000
 30
0.0000
 11
0.0000
 21
3.5000
 31
0.0000
  0
ARC
  8
20
 10
3.5000
 20
3.5000
 30
0.0000
 40
3.5000
 50
180.0000
 51
270.0000
  0
LINE
  8
20
 10
3.5000
 20
0.0000
 30
0.0000
 11
60.5000
 21
0.0000
 31
0.0000
  0
ARC
  8
20
 10
60.5000
 20
3.5000
 30
0.0000
 40
3.5000
 50
270.0000
 51
0.0000
  0
LINE
  8
20
 10
64.0000
 20
3.5000
 30
0.0000
 11
64.0000
 21
29.5000
 31
0.0000
  0
LINE
  8
21
 10
2.1100
 20
17.8275
 30
0.0000
 11
4.6500
 21
17.8275
 31
0.0000
  0
LINE
  8
21
 10
7.1900
 20
17.8275
 30
0.0000
 11
9.7300
 21
17.8275
 31
0.0000
  0
LINE
  8
21
 10
12.2700
 20
17.8275
 30
0.0000
 11
14.8100
 21
17.8275
 31
0.0000
  0
LINE
  8
21
 10
17.3500
 20
17.8275
 30
0.0000
 11
19.8900
 21
17.8275
 31
0.0000
  0
LINE
  8
21
 10
22.4300
 20
17.8275
 30
0.0000
 11
24.9700
 21
17.8275
 31
0.0000
  0
LINE
  8
21
 10
27.5100
 20
17.8275
 30
0.0000
 11
30.0500
 21
17.8275
 31
0.0000
  0
LINE
  8
21
 10
32.5900
 20
17.8275
 30
0.0000
 11
35.1300
 21
17.8275
 31
0.0000
  0
LINE
  8
21
 10
37.6700
 20
17.8275
 30
0.0000
 11
40.2100
 21
17.8275
 31
0.0000
  0
LINE
  8
21
 10
42.7500
 20
17.8275
 30
0.0000
 11
45.2900
 21
17.8275
 31
0.0000
  0
LINE
  8
21
 10
2.1100
 20
7.6675
 30
0.0000
 11
4.6500
 21
7.6675
 31
0.0000
  0
LINE
  8
21
 10
7.1900
 20
7.6675
 30
0.0000
 11
9.7300
 21
7.6675
 31
0.0000
  0
LINE
  8
21
 10
12.2700
 20
7.6675
 30
0.0000
 11
14.8100
 21
7.6675
 31
0.0000
  0
LINE
  8
21
 10
17.3500
 20
7.6675
 30
0.0000
 11
19.8900
 21
7.6675
 31
0.0000
  0
LINE
  8
21
 10
22.4300
 20
7.6675
 30
0.0000
 11
24.9700
 21
7.6675
 31
0.0000
  0
LINE
  8
21
 10
27.5100
 20
7.6675
 30
0.0000
 11
30.0500
 21
7.6675
 31
0.0000
  0
LINE
  8
21
 10
32.5900
 20
7.6675
 30
0.0000
 11
35.1300
 21
7.6675
 31
0.0000
  0
LINE
  8
21
 10
37.6700
 20
7.6675
 30
0.0000
 11
45.2900
 21
7.6675
 31
0.0000
  0
LINE
  8
21
 10
42.1700
 20
29.6000
 30
0.0000
 11
55.9700
 21
29.6000
 31
0.0000
  0
LINE
  8
21
 10
42.1700
 20
24.4500
 30
0.0000
 11
55.9700
 21
24.4500
 31
0.0000
  0
LINE
  8
21
 10
52.0700
 20
10.2700
 30
0.0000
 11
52.0700
 21
14.0200
 31
0.0000
  0
LINE
  8
21
 10
52.0700
 20
14.0200
 30
0.0000
 11
52.6700
 21
14.6200
 31
0.0000
  0
LINE
  8
21
 10
52.6700
 20
14.6200
 30
0.0000
 11
54.0200
 21
14.6200
 31
0.0000
  0
LINE
  8
21
 10
54.0200
 20
14.6200
 30
0.0000
 11
54.6200
 21
14.0200
 31
0.0000
  0
LINE
  8
21
 10
54.6200
 20
10.2700
 30
0.0000
 11
54.0200
 21
9.6700
 31
0.0000
  0
LINE
  8
21
 10
54.0200
 20
9.6700
 30
0.0000
 11
52.6700
 21
9.6700
 31
0.0000
  0
LINE
  8
21
 10
52.6700
 20
9.6700
 30
0.0000
 11
52.0700
 21
10.2700
 31
0.0000
  0
LINE
  8
21
 10
54.6200
 20
14.0200
 30
0.0000
 11
55.2200
 21
14.6200
 31
0.0000
  0
LINE
  8
21
 10
55.2200
 20
14.6200
 30
0.0000
 11
56.5700
 21
14.6200
 31
0.0000
  0
LINE
  8
21
 10
56.5700
 20
14.6200
 30
0.0000
 11
57.1700
 21
14.0200
 31
0.0000
  0
LINE
  8
21
 10
57.1700
 20
14.0200
 30
0.0000
 11
57.1700
 21
10.2700
 31
0.0000
  0
LINE
  8
21
 10
57.1700
 20
10.2700
 30
0.0000
 11
56.5700
 21
9.6700
 31
0.0000
  0
LINE
  8
21
 10
56.5700
 20
9.6700
 30
0.0000
 11
55.2200
 21
9.6700
 31
0.0000
  0
LINE
  8
21
 10
55.2200
 20
9.6700
 30
0.0000
 11
54.6200
 21
10.2700
 31
0.0000
  0
LINE
  8
21
 10
53.3450
 20
13.4700
 30
0.0000
 11
53.3450
 21
15.6700
 31
0.0000
  0
LINE
  8
21
 10
55.8850
 20
13.4700
 30
0.0000
 11
55.8850
 21
15.6700
 31
0.0000
  0
LINE
  8
21
 10
53.2850
 20
10.8900
 30
0.0000
 11
53.2850
 21
8.6900
 31
0.0000
  0
LINE
  8
21
 10
53.9950
 20
9.6750
 30
0.0000
 11
55.0950
 21
9.6750
 31
0.0000
  0
LINE
  8
21
 10
55.2700
 20
9.6750
 30
0.0000
 11
55.0950
 21
9.6750
 31
0.0000
  0
LINE
  8
21
 10
55.0950
 20
9.6750
 30
0.0000
 11
54.6200
 21
10.1000
 31
0.0000
  0
LINE
  8
21
 10
54.6200
 20
10.1000
 30
0.0000
 11
54.6200
 21
10.0750
 31
0.0000
  0
LINE
  8
21
 10
54.6200
 20
10.0750
 30
0.0000
 11
54.2200
 21
9.6750
 31
0.0000
  0
LINE
  8
21
 10
54.2200
 20
9.6750
 30
0.0000
 11
54.4200
 21
9.6750
 31
0.0000
  0
LINE
  8
21
 10
54.4200
 20
9.6750
 30
0.0000
 11
54.6700
 21
9.9250
 31
0.0000
  0
LINE
  8
21
 10
54.6700
 20
9.9250
 30
0.0000
 11
54.6700
 21
9.8000
 31
0.0000
  0
LINE
  8
21
 10
54.6700
 20
9.8000
 30
0.0000
 11
54.7700
 21
9.7000
 31
0.0000
  0
LINE
  8
21
 10
2.7450
 20
16.5750
 30
0.0000
 11
3.8200
 21
16.5750
 31
0.0000
  0
LINE
  8
21
 10
3.9700
 20
16.5750
 30
0.0000
 11
3.8200
 21
16.5750
 31
0.0000
  0
LINE
  8
21
 10
3.8200
 20
16.5750
 30
0.0000
 11
3.3450
 21
17.0500
 31
0.0000
  0
LINE
  8
21
 10
3.3450
 20
17.0500
 30
0.0000
 11
2.9700
 21
16.6750
 31
0.0000
  0
LINE
  8
21
 10
2.9700
 20
16.6750
 30
0.0000
 11
3.4700
 21
16.6750
 31
0.0000
  0
LINE
  8
21
 10
3.4700
 20
16.6750
 30
0.0000
 11
3.4950
 21
16.7000
 31
0.0000
  0
LINE
  8
21
 10
3.4950
 20
16.7000
 30
0.0000
 11
3.4200
 21
16.7000
 31
0.0000
  0
LINE
  8
21
 10
3.4200
 20
16.7000
 30
0.0000
 11
3.2950
 21
16.8250
 31
0.0000
  0
LINE
  8
21
 10
7.8250
 20
16.5750
 30
0.0000
 11
8.9000
 21
16.5750
 31
0.0000
  0
LINE
  8
21
 10
9.0500
 20
16.5750
 30
0.0000
 11
8.9000
 21
16.5750
 31
0.0000
  0
LINE
  8
21
 10
8.9000
 20
16.5750
 30
0.0000
 11
8.4250
 21
17.0500
 31
0.0000
  0
LINE
  8
21
 10
8.4250
 20
17.0500
 30
0.0000
 11
8.0500
 21
16.6750
 31
0.0000
  0
LINE
  8
21
 10
8.0500
 20
16.6750
 30
0.0000
 11
8.5500
 21
16.6750
 31
0.0000
  0
LINE
  8
21
 10
8.5500
 20
16.6750
 30
0.0000
 11
8.5750
 21
16.7000
 31
0.0000
  0
LINE
  8
21
 10
8.5750
 20
16.7000
 30
0.0000
 11
8.5000
 21
16.7000
 31
0.0000
  0
LINE
  8
21
 10
8.5000
 20
16.7000
 30
0.0000
 11
8.3750
 21
16.8250
 31
0.0000
  0
LINE
  8
21
 10
12.9050
 20
16.5750
 30
0.0000
 11
13.9800
 21
16.5750
 31
0.0000
  0
LINE
  8
21
 10
14.1300
 20
16.5750
 30
0.0000
 11
13.9800
 21
16.5750
 31
0.0000
  0
LINE
  8
21
 10
13.9800
 20
16.5750
 30
0.0000
 11
13.5050
 21
17.0500
 31
0.0000
  0
LINE
  8
21
 10
13.5050
 20
17.0500
 30
0.0000
 11
13.1300
 21
16.6750
 31
0.0000
  0
LINE
  8
21
 10
13.1300
 20
16.6750
 30
0.0000
 11
13.6300
 21
16.6750
 31
0.0000
  0
LINE
  8
21
 10
13.6300
 20
16.6750
 30
0.0000
 11
13.6550
 21
16.7000
 31
0.0000
  0
LINE
  8
21
 10
13.6550
 20
16.7000
 30
0.0000
 11
13.5800
 21
16.7000
 31
0.0000
  0
LINE
  8
21
 10
13.5800
 20
16.7000
 30
0.0000
 11
13.4550
 21
16.8250
 31
0.0000
  0
LINE
  8
21
 10
17.9850
 20
16.5750
 30
0.0000
 11
19.0600
 21
16.5750
 31
0.0000
  0
LINE
  8
21
 10
19.2100
 20
16.5750
 30
0.0000
 11
19.0600
 21
16.5750
 31
0.0000
  0
LINE
  8
21
 10
19.0600
 20
16.5750
 30
0.0000
 11
18.5850
 21
17.0500
 31
0.0000
  0
LINE
  8
21
 10
18.5850
 20
17.0500
 30
0.0000
 11
18.2100
 21
16.6750
 31
0.0000
  0
LINE
  8
21
 10
18.2100
 20
16.6750
 30
0.0000
 11
18.7100
 21
16.6750
 31
0.0000
  0
LINE
  8
21
 10
18.7100
 20
16.6750
 30
0.0000
 11
18.7350
 21
16.7000
 31
0.0000
  0
LINE
  8
21
 10
18.7350
 20
16.7000
 30
0.0000
 11
18.6600
 21
16.7000
 31
0.0000
  0
LINE
  8
21
 10
18.6600
 20
16.7000
 30
0.0000
 11
18.5350
 21
16.8250
 31
0.0000
  0
LINE
  8
21
 10
23.0650
 20
16.5750
 30
0.0000
 11
24.1400
 21
16.5750
 31
0.0000
  0
LINE
  8
21
 10
24.2900
 20
16.5750
 30
0.0000
 11
24.1400
 21
16.5750
 31
0.0000
  0
LINE
  8
21
 10
24.1400
 20
16.5750
 30
0.0000
 11
23.6650
 21
17.0500
 31
0.0000
  0
LINE
  8
21
 10
23.6650
 20
17.0500
 30
0.0000
 11
23.2900
 21
16.6750
 31
0.0000
  0
LINE
  8
21
 10
23.2900
 20
16.6750
 30
0.0000
 11
23.7900
 21
16.6750
 31
0.0000
  0
LINE
  8
21
 10
23.7900
 20
16.6750
 30
0.0000
 11
23.8150
 21
16.7000
 31
0.0000
  0
LINE
  8
21
 10
23.8150
 20
16.7000
 30
0.0000
 11
23.7400
 21
16.7000
 31
0.0000
  0
LINE
  8
21
 10
23.7400
 20
16.7000
 30
0.0000
 11
23.6150
 21
16.8250
 31
0.0000
  0
LINE
  8
21
 10
28.1450
 20
16.5750
 30
0.0000
 11
29.2200
 21
16.5750
 31
0.0000
  0
LINE
  8
21
 10
29.3700
 20
16.5750
 30
0.0000
 11
29.2200
 21
16.5750
 31
0.0000
  0
LINE
  8
21
 10
29.2200
 20
16.5750
 30
0.0000
 11
28.7450
 21
17.0500
 31
0.0000
  0
LINE
  8
21
 10
28.7450
 20
17.0500
 30
0.0000
 11
28.3700
 21
16.6750
 31
0.0000
  0
LINE
  8
21
 10
28.3700
 20
16.6750
 30
0.0000
 11
28.8700
 21
16.6750
 31
0.0000
  0
LINE
  8
21
 10
28.8700
 20
16.6750
 30
0.0000
 11
28.8950
 21
16.7000
 31
0.0000
  0
LINE
  8
21
 10
28.8950
 20
16.7000
 30
0.0000
 11
28.8200
 21
16.7000
 31
0.0000
  0
LINE
  8
21
 10
28.8200
 20
16.7000
 30
0.0000
 11
28.6950
 21
16.8250
 31
0.0000
  0
LINE
  8
21
 10
33.2250
 20
16.5750
 30
0.0000
 11
34.3000
 21
16.5750
 31
0.0000
  0
LINE
  8
21
 10
34.4500
 20
16.5750
 30
0.0000
 11
34.3000
 21
16.5750
 31
0.0000
  0
LINE
  8
21
 10
34.3000
 20
16.5750
 30
0.0000
 11
33.8250
 21
17.0500
 31
0.0000
  0
LINE
  8
21
 10
33.8250
 20
17.0500
 30
0.0000
 11
33.4500
 21
16.6750
 31
0.0000
  0
LINE
  8
21
 10
33.4500
 20
16.6750
 30
0.0000
 11
33.9500
 21
16.6750
 31
0.0000
  0
LINE
  8
21
 10
33.9500
 20
16.6750
 30
0.0000
 11
33.9750
 21
16.7000
 31
0.0000
  0
LINE
  8
21
 10
33.9750
 20
16.7000
 30
0.0000
 11
33.9000
 21
16.7000
 31
0.0000
  0
LINE
  8
21
 10
33.9000
 20
16.7000
 30
0.0000
 11
33.7750
 21
16.8250
 31
0.0000
  0
LINE
  8
21
 10
38.3050
 20
16.5750
 30
0.0000
 11
39.3800
 21
16.5750
 31
0.0000
  0
LINE
  8
21
 10
39.5300
 20
16.5750
 30
0.0000
 11
39.3800
 21
16.5750
 31
0.0000
  0
LINE
  8
21
 10
39.3800
 20
16.5750
 30
0.0000
 11
38.9050
 21
17.0500
 31
0.0000
  0
LINE
  8
21
 10
38.9050
 20
17.0500
 30
0.0000
 11
38.5300
 21
16.6750
 31
0.0000
  0
LINE
  8
21
 10
38.5300
 20
16.6750
 30
0.0000
 11
39.0300
 21
16.6750
 31
0.0000
  0
LINE
  8
21
 10
39.0300
 20
16.6750
 30
0.0000
 11
39.0550
 21
16.7000
 31
0.0000
  0
LINE
  8
21
 10
39.0550
 20
16.7000
 30
0.0000
 11
38.9800
 21
16.7000
 31
0.0000
  0
LINE
  8
21
 10
38.9800
 20
16.7000
 30
0.0000
 11
38.8550
 21
16.8250
 31
0.0000
  0
LINE
  8
21
 10
2.7450
 20
6.4150
 30
0.0000
 11
3.8200
 21
6.4150
 31
0.0000
  0
LINE
  8
21
 10
3.9700
 20
6.4150
 30
0.0000
 11
3.8200
 21
6.4150
 31
0.0000
  0
LINE
  8
21
 10
3.8200
 20
6.4150
 30
0.0000
 11
3.3450
 21
6.8900
 31
0.0000
  0
LINE
  8
21
 10
3.3450
 20
6.8900
 30
0.0000
 11
2.9700
 21
6.5150
 31
0.0000
  0
LINE
  8
21
 10
2.9700
 20
6.5150
 30
0.0000
 11
3.4700
 21
6.5150
 31
0.0000
  0
LINE
  8
21
 10
3.4700
 20
6.5150
 30
0.0000
 11
3.4950
 21
6.5400
 31
0.0000
  0
LINE
  8
21
 10
3.4950
 20
6.5400
 30
0.0000
 11
3.4200
 21
6.5400
 31
0.0000
  0
LINE
  8
21
 10
3.4200
 20
6.5400
 30
0.0000
 11
3.2950
 21
6.6650
 31
0.0000
  0
LINE
  8
21
 10
7.8250
 20
6.4150
 30
0.0000
 11
8.9000
 21
6.4150
 31
0.0000
  0
LINE
  8
21
 10
9.0500
 20
6.4150
 30
0.0000
 11
8.9000
 21
6.4150
 31
0.0000
  0
LINE
  8
21
 10
8.9000
 20
6.4150
 30
0.0000
 11
8.4250
 21
6.8900
 31
0.0000
  0
LINE
  8
21
 10
8.4250
 20
6.8900
 30
0.0000
 11
8.0500
 21
6.5150
 31
0.0000
  0
LINE
  8
21
 10
8.0500
 20
6.5150
 30
0.0000
 11
8.5500
 21
6.5150
 31
0.0000
  0
LINE
  8
21
 10
8.5500
 20
6.5150
 30
0.0000
 11
8.5750
 21
6.5400
 31
0.0000
  0
LINE
  8
21
 10
8.5750
 20
6.5400
 30
0.0000
 11
8.5000
 21
6.5400
 31
0.0000
  0
LINE
  8
21
 10
8.5000
 20
6.5400
 30
0.0000
 11
8.3750
 21
6.6650
 31
0.0000
  0
LINE
  8
21
 10
12.9050
 20
6.3650
 30
0.0000
 11
13.9800
 21
6.3650
 31
0.0000
  0
LINE
  8
21
 10
14.1300
 20
6.3650
 30
0.0000
 11
13.9800
 21
6.3650
 31
0.0000
  0
LINE
  8
21
 10
13.9800
 20
6.3650
 30
0.0000
 11
13.5050
 21
6.8400
 31
0.0000
  0
LINE
  8
21
 10
13.5050
 20
6.8400
 30
0.0000
 11
13.1300
 21
6.4650
 31
0.0000
  0
LINE
  8
21
 10
13.1300
 20
6.4650
 30
0.0000
 11
13.6300
 21
6.4650
 31
0.0000
  0
LINE
  8
21
 10
13.6300
 20
6.4650
 30
0.0000
 11
13.6550
 21
6.4900
 31
0.0000
  0
LINE
  8
21
 10
13.6550
 20
6.4900
 30
0.0000
 11
13.5800
 21
6.4900
 31
0.0000
  0
LINE
  8
21
 10
13.5800
 20
6.4900
 30
0.0000
 11
13.4550
 21
6.6150
 31
0.0000
  0
LINE
  8
21
 10
17.9850
 20
6.4150
 30
0.0000
 11
19.0600
 21
6.4150
 31
0.0000
  0
LINE
  8
21
 10
19.2100
 20
6.4150
 30
0.0000
 11
19.0600
 21
6.4150
 31
0.0000
  0
LINE
  8
21
 10
19.0600
 20
6.4150
 30
0.0000
 11
18.5850
 21
6.8900
 31
0.0000
  0
LINE
  8
21
 10
18.5850
 20
6.8900
 30
0.0000
 11
18.2100
 21
6.5150
 31
0.0000
  0
LINE
  8
21
 10
18.2100
 20
6.5150
 30
0.0000
 11
18.7100
 21
6.5150
 31
0.0000
  0
LINE
  8
21
 10
18.7100
 20
6.5150
 30
0.0000
 11
18.7350
 21
6.5400
 31
0.0000
  0
LINE
  8
21
 10
18.7350
 20
6.5400
 30
0.0000
 11
18.6600
 21
6.5400
 31
0.0000
  0
LINE
  8
21
 10
18.6600
 20
6.5400
 30
0.0000
 11
18.5350
 21
6.6650
 31
0.0000
  0
LINE
  8
21
 10
23.0650
 20
6.4150
 30
0.0000
 11
24.1400
 21
6.4150
 31
0.0000
  0
LINE
  8
21
 10
24.2900
 20
6.4150
 30
0.0000
 11
24.1400
 21
6.4150
 31
0.0000
  0
LINE
  8
21
 10
24.1400
 20
6.4150
 30
0.0000
 11
23.6650
 21
6.8900
 31
0.0000
  0
LINE
  8
21
 10
23.6650
 20
6.8900
 30
0.0000
 11
23.2900
 21
6.5150
 31
0.0000
  0
LINE
  8
21
 10
23.2900
 20
6.5150
 30
0.0000
 11
23.7900
 21
6.5150
 31
0.0000
  0
LINE
  8
21
 10
23.7900
 20
6.5150
 30
0.0000
 11
23.8150
 21
6.5400
 31
0.0000
  0
LINE
  8
21
 10
23.8150
 20
6.5400
 30
0.0000
 11
23.7400
 21
6.5400
 31
0.0000
  0
LINE
  8
21
 10
23.7400
 20
6.5400
 30
0.0000
 11
23.6150
 21
6.6650
 31
0.0000
  0
LINE
  8
21
 10
28.1450
 20
6.4150
 30
0.0000
 11
29.2200
 21
6.4150
 31
0.0000
  0
LINE
  8
21
 10
29.3700
 20
6.4150
 30
0.0000
 11
29.2200
 21
6.4150
 31
0.0000
  0
LINE
  8
21
 10
29.2200
 20
6.4150
 30
0.0000
 11
28.7450
 21
6.8900
 31
0.0000
  0
LINE
  8
21
 10
28.7450
 20
6.8900
 30
0.0000
 11
28.3700
 21
6.5150
 31
0.0000
  0
LINE
  8
21
 10
28.3700
 20
6.5150
 30
0.0000
 11
28.8700
 21
6.5150
 31
0.0000
  0
LINE
  8
21
 10
28.8700
 20
6.5150
 30
0.0000
 11
28.8950
 21
6.5400
 31
0.0000
  0
LINE
  8
21
 10
28.8950
 20
6.5400
 30
0.0000
 11
28.8200
 21
6.5400
 31
0.0000
  0
LINE
  8
21
 10
28.8200
 20
6.5400
 30
0.0000
 11
28.6950
 21
6.6650
 31
0.0000
  0
LINE
  8
21
 10
33.2250
 20
6.4150
 30
0.0000
 11
34.3000
 21
6.4150
 31
0.0000
  0
LINE
  8
21
 10
34.4500
 20
6.4150
 30
0.0000
 11
34.3000
 21
6.4150
 31
0.0000
  0
LINE
  8
21
 10
34.3000
 20
6.4150
 30
0.0000
 11
33.8250
 21
6.8900
 31
0.0000
  0
LINE
  8
21
 10
33.8250
 20
6.8900
 30
0.0000
 11
33.4500
 21
6.5150
 31
0.0000
  0
LINE
  8
21
 10
33.4500
 20
6.5150
 30
0.0000
 11
33.9500
 21
6.5150
 31
0.0000
  0
LINE
  8
21
 10
33.9500
 20
6.5150
 30
0.0000
 11
33.9750
 21
6.5400
 31
0.0000
  0
LINE
  8
21
 10
33.9750
 20
6.5400
 30
0.0000
 11
33.9000
 21
6.5400
 31
0.0000
  0
LINE
  8
21
 10
33.9000
 20
6.5400
 30
0.0000
 11
33.7750
 21
6.6650
 31
0.0000
  0
LINE
  8
21
 10
43.3850
 20
16.5750
 30
0.0000
 11
44.4600
 21
16.5750
 31
0.0000
  0
LINE
  8
21
 10
44.6100
 20
16.5750
 30
0.0000
 11
44.4600
 21
16.5750
 31
0.0000
  0
LINE
  8
21
 10
44.4600
 20
16.5750
 30
0.0000
 11
43.9850
 21
17.0500
 31
0.0000
  0
LINE
  8
21
 10
43.9850
 20
17.0500
 30
0.0000
 11
43.6100
 21
16.6750
 31
0.0000
  0
LINE
  8
21
 10
43.6100
 20
16.6750
 30
0.0000
 11
44.1100
 21
16.6750
 31
0.0000
  0
LINE
  8
21
 10
44.1100
 20
16.6750
 30
0.0000
 11
44.1350
 21
16.7000
 31
0.0000
  0
LINE
  8
21
 10
44.1350
 20
16.7000
 30
0.0000
 11
44.0600
 21
16.7000
 31
0.0000
  0
LINE
  8
21
 10
44.0600
 20
16.7000
 30
0.0000
 11
43.9350
 21
16.8250
 31
0.0000
  0
LINE
  8
21
 10
38.3050
 20
6.4150
 30
0.0000
 11
39.3800
 21
6.4150
 31
0.0000
  0
LINE
  8
21
 10
39.5300
 20
6.4150
 30
0.0000
 11
39.3800
 21
6.4150
 31
0.0000
  0
LINE
  8
21
 10
39.3800
 20
6.4150
 30
0.0000
 11
38.9050
 21
6.8900
 31
0.0000
  0
LINE
  8
21
 10
38.9050
 20
6.8900
 30
0.0000
 11
38.5300
 21
6.5150
 31
0.0000
  0
LINE
  8
21
 10
38.5300
 20
6.5150
 30
0.0000
 11
39.0300
 21
6.5150
 31
0.0000
  0
LINE
  8
21
 10
39.0300
 20
6.5150
 30
0.0000
 11
39.0550
 21
6.5400
 31
0.0000
  0
LINE
  8
21
 10
39.0550
 20
6.5400
 30
0.0000
 11
38.9800
 21
6.5400
 31
0.0000
  0
LINE
  8
21
 10
38.9800
 20
6.5400
 30
0.0000
 11
38.8550
 21
6.6650
 31
0.0000
  0
LINE
  8
21
 10
40.8450
 20
6.4150
 30
0.0000
 11
41.9200
 21
6.4150
 31
0.0000
  0
LINE
  8
21
 10
42.0700
 20
6.4150
 30
0.0000
 11
41.9200
 21
6.4150
 31
0.0000
  0
LINE
  8
21
 10
41.9200
 20
6.4150
 30
0.0000
 11
41.4450
 21
6.8900
 31
0.0000
  0
LINE
  8
21
 10
41.4450
 20
6.8900
 30
0.0000
 11
41.0700
 21
6.5150
 31
0.0000
  0
LINE
  8
21
 10
41.0700
 20
6.5150
 30
0.0000
 11
41.5700
 21
6.5150
 31
0.0000
  0
LINE
  8
21
 10
41.5700
 20
6.5150
 30
0.0000
 11
41.5950
 21
6.5400
 31
0.0000
  0
LINE
  8
21
 10
41.5950
 20
6.5400
 30
0.0000
 11
41.5200
 21
6.5400
 31
0.0000
  0
LINE
  8
21
 10
41.5200
 20
6.5400
 30
0.0000
 11
41.3950
 21
6.6650
 31
0.0000
  0
LINE
  8
21
 10
43.3850
 20
6.4150
 30
0.0000
 11
44.4600
 21
6.4150
 31
0.0000
  0
LINE
  8
21
 10
44.6100
 20
6.4150
 30
0.0000
 11
44.4600
 21
6.4150
 31
0.0000
  0
LINE
  8
21
 10
44.4600
 20
6.4150
 30
0.0000
 11
43.9850
 21
6.8900
 31
0.0000
  0
LINE
  8
21
 10
43.9850
 20
6.8900
 30
0.0000
 11
43.6100
 21
6.5150
 31
0.0000
  0
LINE
  8
21
 10
43.6100
 20
6.5150
 30
0.0000
 11
44.1100
 21
6.5150
 31
0.0000
  0
LINE
  8
21
 10
44.1100
 20
6.5150
 30
0.0000
 11
44.1350
 21
6.5400
 31
0.0000
  0
LINE
  8
21
 10
44.1350
 20
6.5400
 30
0.0000
 11
44.0600
 21
6.5400
 31
0.0000
  0
LINE
  8
21
 10
44.0600
 20
6.5400
 30
0.0000
 11
43.9350
 21
6.6650
 31
0.0000
  0
LINE
  8
21
 10
2.7311
 20
2.4389
 30
0.0000
 11
1.5079
 21
2.4389
 31
0.0000
  0
LINE
  8
21
 10
1.5079
 20
2.4389
 30
0.0000
 11
1.5079
 21
3.0505
 31
0.0000
  0
LINE
  8
21
 10
1.5079
 20
3.0505
 30
0.0000
 11
1.7118
 21
3.2543
 31
0.0000
  0
LINE
  8
21
 10
1.7118
 20
3.2543
 30
0.0000
 11
1.9157
 21
3.2543
 31
0.0000
  0
LINE
  8
21
 10
1.9157
 20
3.2543
 30
0.0000
 11
2.1195
 21
3.0505
 31
0.0000
  0
LINE
  8
21
 10
2.1195
 20
3.0505
 30
0.0000
 11
2.3234
 21
3.2543
 31
0.0000
  0
LINE
  8
21
 10
2.3234
 20
3.2543
 30
0.0000
 11
2.5273
 21
3.2543
 31
0.0000
  0
LINE
  8
21
 10
2.5273
 20
3.2543
 30
0.0000
 11
2.7311
 21
3.0505
 31
0.0000
  0
LINE
  8
21
 10
2.7311
 20
3.0505
 30
0.0000
 11
2.7311
 21
2.4389
 31
0.0000
  0
LINE
  8
21
 10
2.1195
 20
2.4389
 30
0.0000
 11
2.1195
 21
3.0505
 31
0.0000
  0
LINE
  8
21
 10
1.9157
 20
3.7280
 30
0.0000
 11
1.5079
 21
4.1357
 31
0.0000
  0
LINE
  8
21
 10
1.5079
 20
4.1357
 30
0.0000
 11
2.7311
 21
4.1357
 31
0.0000
  0
LINE
  8
21
 10
2.7311
 20
3.7280
 30
0.0000
 11
2.7311
 21
4.5434
 31
0.0000
  0
LINE
  8
21
 10
2.5273
 20
5.0171
 30
0.0000
 11
2.7311
 21
5.2209
 31
0.0000
  0
LINE
  8
21
 10
2.7311
 20
5.2209
 30
0.0000
 11
2.7311
 21
5.6287
 31
0.0000
  0
LINE
  8
21
 10
2.7311
 20
5.6287
 30
0.0000
 11
2.5273
 21
5.8325
 31
0.0000
  0
LINE
  8
21
 10
2.5273
 20
5.8325
 30
0.0000
 11
1.7118
 21
5.8325
 31
0.0000
  0
LINE
  8
21
 10
1.7118
 20
5.8325
 30
0.0000
 11
1.5079
 21
5.6287
 31
0.0000
  0
LINE
  8
21
 10
1.5079
 20
5.6287
 30
0.0000
 11
1.5079
 21
5.2209
 31
0.0000
  0
LINE
  8
21
 10
1.5079
 20
5.2209
 30
0.0000
 11
1.7118
 21
5.0171
 31
0.0000
  0
LINE
  8
21
 10
1.7118
 20
5.0171
 30
0.0000
 11
1.9157
 21
5.0171
 31
0.0000
  0
LINE
  8
21
 10
1.9157
 20
5.0171
 30
0.0000
 11
2.1195
 21
5.2209
 31
0.0000
  0
LINE
  8
21
 10
2.1195
 20
5.2209
 30
0.0000
 11
2.1195
 21
5.8325
 31
0.0000
  0
LINE
  8
21
 10
5.2711
 20
2.4389
 30
0.0000
 11
4.0479
 21
2.4389
 31
0.0000
  0
LINE
  8
21
 10
4.0479
 20
2.4389
 30
0.0000
 11
4.0479
 21
3.0505
 31
0.0000
  0
LINE
  8
21
 10
4.0479
 20
3.0505
 30
0.0000
 11
4.2518
 21
3.2543
 31
0.0000
  0
LINE
  8
21
 10
4.2518
 20
3.2543
 30
0.0000
 11
4.4557
 21
3.2543
 31
0.0000
  0
LINE
  8
21
 10
4.4557
 20
3.2543
 30
0.0000
 11
4.6595
 21
3.0505
 31
0.0000
  0
LINE
  8
21
 10
4.6595
 20
3.0505
 30
0.0000
 11
4.8634
 21
3.2543
 31
0.0000
  0
LINE
  8
21
 10
4.8634
 20
3.2543
 30
0.0000
 11
5.0673
 21
3.2543
 31
0.0000
  0
LINE
  8
21
 10
5.0673
 20
3.2543
 30
0.0000
 11
5.2711
 21
3.0505
 31
0.0000
  0
LINE
  8
21
 10
5.2711
 20
3.0505
 30
0.0000
 11
5.2711
 21
2.4389
 31
0.0000
  0
LINE
  8
21
 10
4.6595
 20
2.4389
 30
0.0000
 11
4.6595
 21
3.0505
 31
0.0000
  0
LINE
  8
21
 10
5.2711
 20
4.5434
 30
0.0000
 11
5.2711
 21
3.7280
 31
0.0000
  0
LINE
  8
21
 10
5.2711
 20
3.7280
 30
0.0000
 11
4.4557
 21
4.5434
 31
0.0000
  0
LINE
  8
21
 10
4.4557
 20
4.5434
 30
0.0000
 11
4.2518
 21
4.5434
 31
0.0000
  0
LINE
  8
21
 10
4.2518
 20
4.5434
 30
0.0000
 11
4.0479
 21
4.3396
 31
0.0000
  0
LINE
  8
21
 10
4.0479
 20
4.3396
 30
0.0000
 11
4.0479
 21
3.9318
 31
0.0000
  0
LINE
  8
21
 10
4.0479
 20
3.9318
 30
0.0000
 11
4.2518
 21
3.7280
 31
0.0000
  0
LINE
  8
21
 10
5.0673
 20
5.0171
 30
0.0000
 11
4.2518
 21
5.0171
 31
0.0000
  0
LINE
  8
21
 10
4.2518
 20
5.0171
 30
0.0000
 11
4.0479
 21
5.2209
 31
0.0000
  0
LINE
  8
21
 10
4.0479
 20
5.2209
 30
0.0000
 11
4.0479
 21
5.6287
 31
0.0000
  0
LINE
  8
21
 10
4.0479
 20
5.6287
 30
0.0000
 11
4.2518
 21
5.8325
 31
0.0000
  0
LINE
  8
21
 10
4.2518
 20
5.8325
 30
0.0000
 11
5.0673
 21
5.8325
 31
0.0000
  0
LINE
  8
21
 10
5.0673
 20
5.8325
 30
0.0000
 11
5.2711
 21
5.6287
 31
0.0000
  0
LINE
  8
21
 10
5.2711
 20
5.6287
 30
0.0000
 11
5.2711
 21
5.2209
 31
0.0000
  0
LINE
  8
21
 10
5.2711
 20
5.2209
 30
0.0000
 11
5.0673
 21
5.0171
 31
0.0000
  0
LINE
  8
21
 10
5.0673
 20
5.0171
 30
0.0000
 11
4.2518
 21
5.8325
 31
0.0000
  0
LINE
  8
21
 10
7.7611
 20
2.4389
 30
0.0000
 11
6.5379
 21
2.4389
 31
0.0000
  0
LINE
  8
21
 10
6.5379
 20
2.4389
 30
0.0000
 11
6.5379
 21
3.0505
 31
0.0000
  0
LINE
  8
21
 10
6.5379
 20
3.0505
 30
0.0000
 11
6.7418
 21
3.2543
 31
0.0000
  0
LINE
  8
21
 10
6.7418
 20
3.2543
 30
0.0000
 11
6.9457
 21
3.2543
 31
0.0000
  0
LINE
  8
21
 10
6.9457
 20
3.2543
 30
0.0000
 11
7.1495
 21
3.0505
 31
0.0000
  0
LINE
  8
21
 10
7.1495
 20
3.0505
 30
0.0000
 11
7.3534
 21
3.2543
 31
0.0000
  0
LINE
  8
21
 10
7.3534
 20
3.2543
 30
0.0000
 11
7.5573
 21
3.2543
 31
0.0000
  0
LINE
  8
21
 10
7.5573
 20
3.2543
 30
0.0000
 11
7.7611
 21
3.0505
 31
0.0000
  0
LINE
  8
21
 10
7.7611
 20
3.0505
 30
0.0000
 11
7.7611
 21
2.4389
 31
0.0000
  0
LINE
  8
21
 10
7.1495
 20
2.4389
 30
0.0000
 11
7.1495
 21
3.0505
 31
0.0000
  0
LINE
  8
21
 10
7.7611
 20
4.5434
 30
0.0000
 11
7.7611
 21
3.7280
 31
0.0000
  0
LINE
  8
21
 10
7.7611
 20
3.7280
 30
0.0000
 11
6.9457
 21
4.5434
 31
0.0000
  0
LINE
  8
21
 10
6.9457
 20
4.5434
 30
0.0000
 11
6.7418
 21
4.5434
 31
0.0000
  0
LINE
  8
21
 10
6.7418
 20
4.5434
 30
0.0000
 11
6.5379
 21
4.3396
 31
0.0000
  0
LINE
  8
21
 10
6.5379
 20
4.3396
 30
0.0000
 11
6.5379
 21
3.9318
 31
0.0000
  0
LINE
  8
21
 10
6.5379
 20
3.9318
 30
0.0000
 11
6.7418
 21
3.7280
 31
0.0000
  0
LINE
  8
21
 10
6.9457
 20
5.0171
 30
0.0000
 11
6.5379
 21
5.4248
 31
0.0000
  0
LINE
  8
21
 10
6.5379
 20
5.4248
 30
0.0000
 11
7.7611
 21
5.4248
 31
0.0000
  0
LINE
  8
21
 10
7.7611
 20
5.0171
 30
0.0000
 11
7.7611
 21
5.8325
 31
0.0000
  0
LINE
  8
21
 10
10.2511
 20
2.4389
 30
0.0000
 11
9.0279
 21
2.4389
 31
0.0000
  0
LINE
  8
21
 10
9.0279
 20
2.4389
 30
0.0000
 11
9.0279
 21
3.0505
 31
0.0000
  0
LINE
  8
21
 10
9.0279
 20
3.0505
 30
0.0000
 11
9.2318
 21
3.2543
 31
0.0000
  0
LINE
  8
21
 10
9.2318
 20
3.2543
 30
0.0000
 11
9.4357
 21
3.2543
 31
0.0000
  0
LINE
  8
21
 10
9.4357
 20
3.2543
 30
0.0000
 11
9.6395
 21
3.0505
 31
0.0000
  0
LINE
  8
21
 10
9.6395
 20
3.0505
 30
0.0000
 11
9.8434
 21
3.2543
 31
0.0000
  0
LINE
  8
21
 10
9.8434
 20
3.2543
 30
0.0000
 11
10.0473
 21
3.2543
 31
0.0000
  0
LINE
  8
21
 10
10.0473
 20
3.2543
 30
0.0000
 11
10.2511
 21
3.0505
 31
0.0000
  0
LINE
  8
21
 10
10.2511
 20
3.0505
 30
0.0000
 11
10.2511
 21
2.4389
 31
0.0000
  0
LINE
  8
21
 10
9.6395
 20
2.4389
 30
0.0000
 11
9.6395
 21
3.0505
 31
0.0000
  0
LINE
  8
21
 10
10.2511
 20
4.5434
 30
0.0000
 11
10.2511
 21
3.7280
 31
0.0000
  0
LINE
  8
21
 10
10.2511
 20
3.7280
 30
0.0000
 11
9.4357
 21
4.5434
 31
0.0000
  0
LINE
  8
21
 10
9.4357
 20
4.5434
 30
0.0000
 11
9.2318
 21
4.5434
 31
0.0000
  0
LINE
  8
21
 10
9.2318
 20
4.5434
 30
0.0000
 11
9.0279
 21
4.3396
 31
0.0000
  0
LINE
  8
21
 10
9.0279
 20
4.3396
 30
0.0000
 11
9.0279
 21
3.9318
 31
0.0000
  0
LINE
  8
21
 10
9.0279
 20
3.9318
 30
0.0000
 11
9.2318
 21
3.7280
 31
0.0000
  0
LINE
  8
21
 10
10.2511
 20
5.8325
 30
0.0000
 11
10.2511
 21
5.0171
 31
0.0000
  0
LINE
  8
21
 10
10.2511
 20
5.0171
 30
0.0000
 11
9.4357
 21
5.8325
 31
0.0000
  0
LINE
  8
21
 10
9.4357
 20
5.8325
 30
0.0000
 11
9.2318
 21
5.8325
 31
0.0000
  0
LINE
  8
21
 10
9.2318
 20
5.8325
 30
0.0000
 11
9.0279
 21
5.6287
 31
0.0000
  0
LINE
  8
21
 10
9.0279
 20
5.6287
 30
0.0000
 11
9.0279
 21
5.2209
 31
0.0000
  0
LINE
  8
21
 10
9.0279
 20
5.2209
 30
0.0000
 11
9.2318
 21
5.0171
 31
0.0000
  0
LINE
  8
21
 10
18.0211
 20
2.4389
 30
0.0000
 11
16.7979
 21
2.4389
 31
0.0000
  0
LINE
  8
21
 10
16.7979
 20
2.4389
 30
0.0000
 11
16.7979
 21
3.0505
 31
0.0000
  0
LINE
  8
21
 10
16.7979
 20
3.0505
 30
0.0000
 11
17.0018
 21
3.2543
 31
0.0000
  0
LINE
  8
21
 10
17.0018
 20
3.2543
 30
0.0000
 11
17.2057
 21
3.2543
 31
0.0000
  0
LINE
  8
21
 10
17.2057
 20
3.2543
 30
0.0000
 11
17.4095
 21
3.0505
 31
0.0000
  0
LINE
  8
21
 10
17.4095
 20
3.0505
 30
0.0000
 11
17.6134
 21
3.2543
 31
0.0000
  0
LINE
  8
21
 10
17.6134
 20
3.2543
 30
0.0000
 11
17.8173
 21
3.2543
 31
0.0000
  0
LINE
  8
21
 10
17.8173
 20
3.2543
 30
0.0000
 11
18.0211
 21
3.0505
 31
0.0000
  0
LINE
  8
21
 10
18.0211
 20
3.0505
 30
0.0000
 11
18.0211
 21
2.4389
 31
0.0000
  0
LINE
  8
21
 10
17.4095
 20
2.4389
 30
0.0000
 11
17.4095
 21
3.0505
 31
0.0000
  0
LINE
  8
21
 10
18.0211
 20
4.5434
 30
0.0000
 11
18.0211
 21
3.7280
 31
0.0000
  0
LINE
  8
21
 10
18.0211
 20
3.7280
 30
0.0000
 11
17.2057
 21
4.5434
 31
0.0000
  0
LINE
  8
21
 10
17.2057
 20
4.5434
 30
0.0000
 11
17.0018
 21
4.5434
 31
0.0000
  0
LINE
  8
21
 10
17.0018
 20
4.5434
 30
0.0000
 11
16.7979
 21
4.3396
 31
0.0000
  0
LINE
  8
21
 10
16.7979
 20
4.3396
 30
0.0000
 11
16.7979
 21
3.9318
 31
0.0000
  0
LINE
  8
21
 10
16.7979
 20
3.9318
 30
0.0000
 11
17.0018
 21
3.7280
 31
0.0000
  0
LINE
  8
21
 10
16.7979
 20
5.8325
 30
0.0000
 11
16.7979
 21
5.0171
 31
0.0000
  0
LINE
  8
21
 10
16.7979
 20
5.0171
 30
0.0000
 11
17.4095
 21
5.0171
 31
0.0000
  0
LINE
  8
21
 10
17.4095
 20
5.0171
 30
0.0000
 11
17.2057
 21
5.4248
 31
0.0000
  0
LINE
  8
21
 10
17.2057
 20
5.4248
 30
0.0000
 11
17.2057
 21
5.6287
 31
0.0000
  0
LINE
  8
21
 10
17.2057
 20
5.6287
 30
0.0000
 11
17.4095
 21
5.8325
 31
0.0000
  0
LINE
  8
21
 10
17.4095
 20
5.8325
 30
0.0000
 11
17.8173
 21
5.8325
 31
0.0000
  0
LINE
  8
21
 10
17.8173
 20
5.8325
 30
0.0000
 11
18.0211
 21
5.6287
 31
0.0000
  0
LINE
  8
21
 10
18.0211
 20
5.6287
 30
0.0000
 11
18.0211
 21
5.2209
 31
0.0000
  0
LINE
  8
21
 10
18.0211
 20
5.2209
 30
0.0000
 11
17.8173
 21
5.0171
 31
0.0000
  0
LINE
  8
21
 10
20.5111
 20
2.4389
 30
0.0000
 11
19.2879
 21
2.4389
 31
0.0000
  0
LINE
  8
21
 10
19.2879
 20
2.4389
 30
0.0000
 11
19.2879
 21
3.0505
 31
0.0000
  0
LINE
  8
21
 10
19.2879
 20
3.0505
 30
0.0000
 11
19.4918
 21
3.2543
 31
0.0000
  0
LINE
  8
21
 10
19.4918
 20
3.2543
 30
0.0000
 11
19.6957
 21
3.2543
 31
0.0000
  0
LINE
  8
21
 10
19.6957
 20
3.2543
 30
0.0000
 11
19.8995
 21
3.0505
 31
0.0000
  0
LINE
  8
21
 10
19.8995
 20
3.0505
 30
0.0000
 11
20.1034
 21
3.2543
 31
0.0000
  0
LINE
  8
21
 10
20.1034
 20
3.2543
 30
0.0000
 11
20.3073
 21
3.2543
 31
0.0000
  0
LINE
  8
21
 10
20.3073
 20
3.2543
 30
0.0000
 11
20.5111
 21
3.0505
 31
0.0000
  0
LINE
  8
21
 10
20.5111
 20
3.0505
 30
0.0000
 11
20.5111
 21
2.4389
 31
0.0000
  0
LINE
  8
21
 10
19.8995
 20
2.4389
 30
0.0000
 11
19.8995
 21
3.0505
 31
0.0000
  0
LINE
  8
21
 10
20.5111
 20
4.5434
 30
0.0000
 11
20.5111
 21
3.7280
 31
0.0000
  0
LINE
  8
21
 10
20.5111
 20
3.7280
 30
0.0000
 11
19.6957
 21
4.5434
 31
0.0000
  0
LINE
  8
21
 10
19.6957
 20
4.5434
 30
0.0000
 11
19.4918
 21
4.5434
 31
0.0000
  0
LINE
  8
21
 10
19.4918
 20
4.5434
 30
0.0000
 11
19.2879
 21
4.3396
 31
0.0000
  0
LINE
  8
21
 10
19.2879
 20
4.3396
 30
0.0000
 11
19.2879
 21
3.9318
 31
0.0000
  0
LINE
  8
21
 10
19.2879
 20
3.9318
 30
0.0000
 11
19.4918
 21
3.7280
 31
0.0000
  0
LINE
  8
21
 10
19.2879
 20
5.8325
 30
0.0000
 11
19.4918
 21
5.4248
 31
0.0000
  0
LINE
  8
21
 10
19.4918
 20
5.4248
 30
0.0000
 11
19.8995
 21
5.0171
 31
0.0000
  0
LINE
  8
21
 10
19.8995
 20
5.0171
 30
0.0000
 11
20.3073
 21
5.0171
 31
0.0000
  0
LINE
  8
21
 10
20.3073
 20
5.0171
 30
0.0000
 11
20.5111
 21
5.2209
 31
0.0000
  0
LINE
  8
21
 10
20.5111
 20
5.2209
 30
0.0000
 11
20.5111
 21
5.6287
 31
0.0000
  0
LINE
  8
21
 10
20.5111
 20
5.6287
 30
0.0000
 11
20.3073
 21
5.8325
 31
0.0000
  0
LINE
  8
21
 10
20.3073
 20
5.8325
 30
0.0000
 11
20.1034
 21
5.8325
 31
0.0000
  0
LINE
  8
21
 10
20.1034
 20
5.8325
 30
0.0000
 11
19.8995
 21
5.6287
 31
0.0000
  0
LINE
  8
21
 10
19.8995
 20
5.6287
 30
0.0000
 11
19.8995
 21
5.0171
 31
0.0000
  0
LINE
  8
21
 10
23.0511
 20
2.4389
 30
0.0000
 11
21.8279
 21
2.4389
 31
0.0000
  0
LINE
  8
21
 10
21.8279
 20
2.4389
 30
0.0000
 11
21.8279
 21
3.0505
 31
0.0000
  0
LINE
  8
21
 10
21.8279
 20
3.0505
 30
0.0000
 11
22.0318
 21
3.2543
 31
0.0000
  0
LINE
  8
21
 10
22.0318
 20
3.2543
 30
0.0000
 11
22.2357
 21
3.2543
 31
0.0000
  0
LINE
  8
21
 10
22.2357
 20
3.2543
 30
0.0000
 11
22.4395
 21
3.0505
 31
0.0000
  0
LINE
  8
21
 10
22.4395
 20
3.0505
 30
0.0000
 11
22.6434
 21
3.2543
 31
0.0000
  0
LINE
  8
21
 10
22.6434
 20
3.2543
 30
0.0000
 11
22.8473
 21
3.2543
 31
0.0000
  0
LINE
  8
21
 10
22.8473
 20
3.2543
 30
0.0000
 11
23.0511
 21
3.0505
 31
0.0000
  0
LINE
  8
21
 10
23.0511
 20
3.0505
 30
0.0000
 11
23.0511
 21
2.4389
 31
0.0000
  0
LINE
  8
21
 10
22.4395
 20
2.4389
 30
0.0000
 11
22.4395
 21
3.0505
 31
0.0000
  0
LINE
  8
21
 10
23.0511
 20
4.5434
 30
0.0000
 11
23.0511
 21
3.7280
 31
0.0000
  0
LINE
  8
21
 10
23.0511
 20
3.7280
 30
0.0000
 11
22.2357
 21
4.5434
 31
0.0000
  0
LINE
  8
21
 10
22.2357
 20
4.5434
 30
0.0000
 11
22.0318
 21
4.5434
 31
0.0000
  0
LINE
  8
21
 10
22.0318
 20
4.5434
 30
0.0000
 11
21.8279
 21
4.3396
 31
0.0000
  0
LINE
  8
21
 10
21.8279
 20
4.3396
 30
0.0000
 11
21.8279
 21
3.9318
 31
0.0000
  0
LINE
  8
21
 10
21.8279
 20
3.9318
 30
0.0000
 11
22.0318
 21
3.7280
 31
0.0000
  0
LINE
  8
21
 10
21.8279
 20
5.0171
 30
0.0000
 11
21.8279
 21
5.8325
 31
0.0000
  0
LINE
  8
21
 10
21.8279
 20
5.8325
 30
0.0000
 11
22.0318
 21
5.8325
 31
0.0000
  0
LINE
  8
21
 10
22.0318
 20
5.8325
 30
0.0000
 11
22.8473
 21
5.0171
 31
0.0000
  0
LINE
  8
21
 10
22.8473
 20
5.0171
 30
0.0000
 11
23.0511
 21
5.0171
 31
0.0000
  0
LINE
  8
21
 10
25.5911
 20
2.4389
 30
0.0000
 11
24.3679
 21
2.4389
 31
0.0000
  0
LINE
  8
21
 10
24.3679
 20
2.4389
 30
0.0000
 11
24.3679
 21
3.0505
 31
0.0000
  0
LINE
  8
21
 10
24.3679
 20
3.0505
 30
0.0000
 11
24.5718
 21
3.2543
 31
0.0000
  0
LINE
  8
21
 10
24.5718
 20
3.2543
 30
0.0000
 11
24.7757
 21
3.2543
 31
0.0000
  0
LINE
  8
21
 10
24.7757
 20
3.2543
 30
0.0000
 11
24.9795
 21
3.0505
 31
0.0000
  0
LINE
  8
21
 10
24.9795
 20
3.0505
 30
0.0000
 11
25.1834
 21
3.2543
 31
0.0000
  0
LINE
  8
21
 10
25.1834
 20
3.2543
 30
0.0000
 11
25.3873
 21
3.2543
 31
0.0000
  0
LINE
  8
21
 10
25.3873
 20
3.2543
 30
0.0000
 11
25.5911
 21
3.0505
 31
0.0000
  0
LINE
  8
21
 10
25.5911
 20
3.0505
 30
0.0000
 11
25.5911
 21
2.4389
 31
0.0000
  0
LINE
  8
21
 10
24.9795
 20
2.4389
 30
0.0000
 11
24.9795
 21
3.0505
 31
0.0000
  0
LINE
  8
21
 10
25.5911
 20
4.5434
 30
0.0000
 11
25.5911
 21
3.7280
 31
0.0000
  0
LINE
  8
21
 10
25.5911
 20
3.7280
 30
0.0000
 11
24.7757
 21
4.5434
 31
0.0000
  0
LINE
  8
21
 10
24.7757
 20
4.5434
 30
0.0000
 11
24.5718
 21
4.5434
 31
0.0000
  0
LINE
  8
21
 10
24.5718
 20
4.5434
 30
0.0000
 11
24.3679
 21
4.3396
 31
0.0000
  0
LINE
  8
21
 10
24.3679
 20
4.3396
 30
0.0000
 11
24.3679
 21
3.9318
 31
0.0000
  0
LINE
  8
21
 10
24.3679
 20
3.9318
 30
0.0000
 11
24.5718
 21
3.7280
 31
0.0000
  0
LINE
  8
21
 10
24.5718
 20
5.0171
 30
0.0000
 11
24.3679
 21
5.2209
 31
0.0000
  0
LINE
  8
21
 10
24.3679
 20
5.2209
 30
0.0000
 11
24.3679
 21
5.6287
 31
0.0000
  0
LINE
  8
21
 10
24.3679
 20
5.6287
 30
0.0000
 11
24.5718
 21
5.8325
 31
0.0000
  0
LINE
  8
21
 10
24.5718
 20
5.8325
 30
0.0000
 11
24.7757
 21
5.8325
 31
0.0000
  0
LINE
  8
21
 10
24.7757
 20
5.8325
 30
0.0000
 11
24.9795
 21
5.6287
 31
0.0000
  0
LINE
  8
21
 10
24.9795
 20
5.6287
 30
0.0000
 11
25.1834
 21
5.8325
 31
0.0000
  0
LINE
  8
21
 10
25.1834
 20
5.8325
 30
0.0000
 11
25.3873
 21
5.8325
 31
0.0000
  0
LINE
  8
21
 10
25.3873
 20
5.8325
 30
0.0000
 11
25.5911
 21
5.6287
 31
0.0000
  0
LINE
  8
21
 10
25.5911
 20
5.6287
 30
0.0000
 11
25.5911
 21
5.2209
 31
0.0000
  0
LINE
  8
21
 10
25.5911
 20
5.2209
 30
0.0000
 11
25.3873
 21
5.0171
 31
0.0000
  0
LINE
  8
21
 10
25.3873
 20
5.0171
 30
0.0000
 11
25.1834
 21
5.0171
 31
0.0000
  0
LINE
  8
21
 10
25.1834
 20
5.0171
 30
0.0000
 11
24.9795
 21
5.2209
 31
0.0000
  0
LINE
  8
21
 10
24.9795
 20
5.2209
 30
0.0000
 11
24.7757
 21
5.0171
 31
0.0000
  0
LINE
  8
21
 10
24.7757
 20
5.0171
 30
0.0000
 11
24.5718
 21
5.0171
 31
0.0000
  0
LINE
  8
21
 10
24.9795
 20
5.2209
 30
0.0000
 11
24.9795
 21
5.6287
 31
0.0000
  0
LINE
  8
21
 10
28.1311
 20
2.4389
 30
0.0000
 11
26.9079
 21
2.4389
 31
0.0000
  0
LINE
  8
21
 10
26.9079
 20
2.4389
 30
0.0000
 11
26.9079
 21
3.0505
 31
0.0000
  0
LINE
  8
21
 10
26.9079
 20
3.0505
 30
0.0000
 11
27.1118
 21
3.2543
 31
0.0000
  0
LINE
  8
21
 10
27.1118
 20
3.2543
 30
0.0000
 11
27.3157
 21
3.2543
 31
0.0000
  0
LINE
  8
21
 10
27.3157
 20
3.2543
 30
0.0000
 11
27.5195
 21
3.0505
 31
0.0000
  0
LINE
  8
21
 10
27.5195
 20
3.0505
 30
0.0000
 11
27.7234
 21
3.2543
 31
0.0000
  0
LINE
  8
21
 10
27.7234
 20
3.2543
 30
0.0000
 11
27.9273
 21
3.2543
 31
0.0000
  0
LINE
  8
21
 10
27.9273
 20
3.2543
 30
0.0000
 11
28.1311
 21
3.0505
 31
0.0000
  0
LINE
  8
21
 10
28.1311
 20
3.0505
 30
0.0000
 11
28.1311
 21
2.4389
 31
0.0000
  0
LINE
  8
21
 10
27.5195
 20
2.4389
 30
0.0000
 11
27.5195
 21
3.0505
 31
0.0000
  0
LINE
  8
21
 10
28.1311
 20
4.5434
 30
0.0000
 11
28.1311
 21
3.7280
 31
0.0000
  0
LINE
  8
21
 10
28.1311
 20
3.7280
 30
0.0000
 11
27.3157
 21
4.5434
 31
0.0000
  0
LINE
  8
21
 10
27.3157
 20
4.5434
 30
0.0000
 11
27.1118
 21
4.5434
 31
0.0000
  0
LINE
  8
21
 10
27.1118
 20
4.5434
 30
0.0000
 11
26.9079
 21
4.3396
 31
0.0000
  0
LINE
  8
21
 10
26.9079
 20
4.3396
 30
0.0000
 11
26.9079
 21
3.9318
 31
0.0000
  0
LINE
  8
21
 10
26.9079
 20
3.9318
 30
0.0000
 11
27.1118
 21
3.7280
 31
0.0000
  0
LINE
  8
21
 10
27.9273
 20
5.0171
 30
0.0000
 11
28.1311
 21
5.2209
 31
0.0000
  0
LINE
  8
21
 10
28.1311
 20
5.2209
 30
0.0000
 11
28.1311
 21
5.6287
 31
0.0000
  0
LINE
  8
21
 10
28.1311
 20
5.6287
 30
0.0000
 11
27.9273
 21
5.8325
 31
0.0000
  0
LINE
  8
21
 10
27.9273
 20
5.8325
 30
0.0000
 11
27.1118
 21
5.8325
 31
0.0000
  0
LINE
  8
21
 10
27.1118
 20
5.8325
 30
0.0000
 11
26.9079
 21
5.6287
 31
0.0000
  0
LINE
  8
21
 10
26.9079
 20
5.6287
 30
0.0000
 11
26.9079
 21
5.2209
 31
0.0000
  0
LINE
  8
21
 10
26.9079
 20
5.2209
 30
0.0000
 11
27.1118
 21
5.0171
 31
0.0000
  0
LINE
  8
21
 10
27.1118
 20
5.0171
 30
0.0000
 11
27.3157
 21
5.0171
 31
0.0000
  0
LINE
  8
21
 10
27.3157
 20
5.0171
 30
0.0000
 11
27.5195
 21
5.2209
 31
0.0000
  0
LINE
  8
21
 10
27.5195
 20
5.2209
 30
0.0000
 11
27.5195
 21
5.8325
 31
0.0000
  0
LINE
  8
21
 10
30.6711
 20
2.4389
 30
0.0000
 11
29.4479
 21
2.4389
 31
0.0000
  0
LINE
  8
21
 10
29.4479
 20
2.4389
 30
0.0000
 11
29.4479
 21
3.0505
 31
0.0000
  0
LINE
  8
21
 10
29.4479
 20
3.0505
 30
0.0000
 11
29.6518
 21
3.2543
 31
0.0000
  0
LINE
  8
21
 10
29.6518
 20
3.2543
 30
0.0000
 11
29.8557
 21
3.2543
 31
0.0000
  0
LINE
  8
21
 10
29.8557
 20
3.2543
 30
0.0000
 11
30.0595
 21
3.0505
 31
0.0000
  0
LINE
  8
21
 10
30.0595
 20
3.0505
 30
0.0000
 11
30.2634
 21
3.2543
 31
0.0000
  0
LINE
  8
21
 10
30.2634
 20
3.2543
 30
0.0000
 11
30.4673
 21
3.2543
 31
0.0000
  0
LINE
  8
21
 10
30.4673
 20
3.2543
 30
0.0000
 11
30.6711
 21
3.0505
 31
0.0000
  0
LINE
  8
21
 10
30.6711
 20
3.0505
 30
0.0000
 11
30.6711
 21
2.4389
 31
0.0000
  0
LINE
  8
21
 10
30.0595
 20
2.4389
 30
0.0000
 11
30.0595
 21
3.0505
 31
0.0000
  0
LINE
  8
21
 10
29.6518
 20
3.7280
 30
0.0000
 11
29.4479
 21
3.9318
 31
0.0000
  0
LINE
  8
21
 10
29.4479
 20
3.9318
 30
0.0000
 11
29.4479
 21
4.3396
 31
0.0000
  0
LINE
  8
21
 10
29.4479
 20
4.3396
 30
0.0000
 11
29.6518
 21
4.5434
 31
0.0000
  0
LINE
  8
21
 10
29.6518
 20
4.5434
 30
0.0000
 11
29.8557
 21
4.5434
 31
0.0000
  0
LINE
  8
21
 10
29.8557
 20
4.5434
 30
0.0000
 11
30.0595
 21
4.3396
 31
0.0000
  0
LINE
  8
21
 10
30.0595
 20
4.3396
 30
0.0000
 11
30.0595
 21
4.1357
 31
0.0000
  0
LINE
  8
21
 10
30.0595
 20
4.3396
 30
0.0000
 11
30.2634
 21
4.5434
 31
0.0000
  0
LINE
  8
21
 10
30.2634
 20
4.5434
 30
0.0000
 11
30.4673
 21
4.5434
 31
0.0000
  0
LINE
  8
21
 10
30.4673
 20
4.5434
 30
0.0000
 11
30.6711
 21
4.3396
 31
0.0000
  0
LINE
  8
21
 10
30.6711
 20
4.3396
 30
0.0000
 11
30.6711
 21
3.9318
 31
0.0000
  0
LINE
  8
21
 10
30.6711
 20
3.9318
 30
0.0000
 11
30.4673
 21
3.7280
 31
0.0000
  0
LINE
  8
21
 10
30.4673
 20
5.0171
 30
0.0000
 11
29.6518
 21
5.0171
 31
0.0000
  0
LINE
  8
21
 10
29.6518
 20
5.0171
 30
0.0000
 11
29.4479
 21
5.2209
 31
0.0000
  0
LINE
  8
21
 10
29.4479
 20
5.2209
 30
0.0000
 11
29.4479
 21
5.6287
 31
0.0000
  0
LINE
  8
21
 10
29.4479
 20
5.6287
 30
0.0000
 11
29.6518
 21
5.8325
 31
0.0000
  0
LINE
  8
21
 10
29.6518
 20
5.8325
 30
0.0000
 11
30.4673
 21
5.8325
 31
0.0000
  0
LINE
  8
21
 10
30.4673
 20
5.8325
 30
0.0000
 11
30.6711
 21
5.6287
 31
0.0000
  0
LINE
  8
21
 10
30.6711
 20
5.6287
 30
0.0000
 11
30.6711
 21
5.2209
 31
0.0000
  0
LINE
  8
21
 10
30.6711
 20
5.2209
 30
0.0000
 11
30.4673
 21
5.0171
 31
0.0000
  0
LINE
  8
21
 10
30.4673
 20
5.0171
 30
0.0000
 11
29.6518
 21
5.8325
 31
0.0000
  0
LINE
  8
21
 10
33.2111
 20
2.4389
 30
0.0000
 11
31.9879
 21
2.4389
 31
0.0000
  0
LINE
  8
21
 10
31.9879
 20
2.4389
 30
0.0000
 11
31.9879
 21
3.0505
 31
0.0000
  0
LINE
  8
21
 10
31.9879
 20
3.0505
 30
0.0000
 11
32.1918
 21
3.2543
 31
0.0000
  0
LINE
  8
21
 10
32.1918
 20
3.2543
 30
0.0000
 11
32.3957
 21
3.2543
 31
0.0000
  0
LINE
  8
21
 10
32.3957
 20
3.2543
 30
0.0000
 11
32.5995
 21
3.0505
 31
0.0000
  0
LINE
  8
21
 10
32.5995
 20
3.0505
 30
0.0000
 11
32.8034
 21
3.2543
 31
0.0000
  0
LINE
  8
21
 10
32.8034
 20
3.2543
 30
0.0000
 11
33.0073
 21
3.2543
 31
0.0000
  0
LINE
  8
21
 10
33.0073
 20
3.2543
 30
0.0000
 11
33.2111
 21
3.0505
 31
0.0000
  0
LINE
  8
21
 10
33.2111
 20
3.0505
 30
0.0000
 11
33.2111
 21
2.4389
 31
0.0000
  0
LINE
  8
21
 10
32.5995
 20
2.4389
 30
0.0000
 11
32.5995
 21
3.0505
 31
0.0000
  0
LINE
  8
21
 10
32.1918
 20
3.7280
 30
0.0000
 11
31.9879
 21
3.9318
 31
0.0000
  0
LINE
  8
21
 10
31.9879
 20
3.9318
 30
0.0000
 11
31.9879
 21
4.3396
 31
0.0000
  0
LINE
  8
21
 10
31.9879
 20
4.3396
 30
0.0000
 11
32.1918
 21
4.5434
 31
0.0000
  0
LINE
  8
21
 10
32.1918
 20
4.5434
 30
0.0000
 11
32.3957
 21
4.5434
 31
0.0000
  0
LINE
  8
21
 10
32.3957
 20
4.5434
 30
0.0000
 11
32.5995
 21
4.3396
 31
0.0000
  0
LINE
  8
21
 10
32.5995
 20
4.3396
 30
0.0000
 11
32.5995
 21
4.1357
 31
0.0000
  0
LINE
  8
21
 10
32.5995
 20
4.3396
 30
0.0000
 11
32.8034
 21
4.5434
 31
0.0000
  0
LINE
  8
21
 10
32.8034
 20
4.5434
 30
0.0000
 11
33.0073
 21
4.5434
 31
0.0000
  0
LINE
  8
21
 10
33.0073
 20
4.5434
 30
0.0000
 11
33.2111
 21
4.3396
 31
0.0000
  0
LINE
  8
21
 10
33.2111
 20
4.3396
 30
0.0000
 11
33.2111
 21
3.9318
 31
0.0000
  0
LINE
  8
21
 10
33.2111
 20
3.9318
 30
0.0000
 11
33.0073
 21
3.7280
 31
0.0000
  0
LINE
  8
21
 10
32.3957
 20
5.0171
 30
0.0000
 11
31.9879
 21
5.4248
 31
0.0000
  0
LINE
  8
21
 10
31.9879
 20
5.4248
 30
0.0000
 11
33.2111
 21
5.4248
 31
0.0000
  0
LINE
  8
21
 10
33.2111
 20
5.0171
 30
0.0000
 11
33.2111
 21
5.8325
 31
0.0000
  0
LINE
  8
21
 10
35.7511
 20
2.4389
 30
0.0000
 11
34.5279
 21
2.4389
 31
0.0000
  0
LINE
  8
21
 10
34.5279
 20
2.4389
 30
0.0000
 11
34.5279
 21
3.0505
 31
0.0000
  0
LINE
  8
21
 10
34.5279
 20
3.0505
 30
0.0000
 11
34.7318
 21
3.2543
 31
0.0000
  0
LINE
  8
21
 10
34.7318
 20
3.2543
 30
0.0000
 11
34.9357
 21
3.2543
 31
0.0000
  0
LINE
  8
21
 10
34.9357
 20
3.2543
 30
0.0000
 11
35.1395
 21
3.0505
 31
0.0000
  0
LINE
  8
21
 10
35.1395
 20
3.0505
 30
0.0000
 11
35.3434
 21
3.2543
 31
0.0000
  0
LINE
  8
21
 10
35.3434
 20
3.2543
 30
0.0000
 11
35.5473
 21
3.2543
 31
0.0000
  0
LINE
  8
21
 10
35.5473
 20
3.2543
 30
0.0000
 11
35.7511
 21
3.0505
 31
0.0000
  0
LINE
  8
21
 10
35.7511
 20
3.0505
 30
0.0000
 11
35.7511
 21
2.4389
 31
0.0000
  0
LINE
  8
21
 10
35.1395
 20
2.4389
 30
0.0000
 11
35.1395
 21
3.0505
 31
0.0000
  0
LINE
  8
21
 10
34.7318
 20
3.7280
 30
0.0000
 11
34.5279
 21
3.9318
 31
0.0000
  0
LINE
  8
21
 10
34.5279
 20
3.9318
 30
0.0000
 11
34.5279
 21
4.3396
 31
0.0000
  0
LINE
  8
21
 10
34.5279
 20
4.3396
 30
0.0000
 11
34.7318
 21
4.5434
 31
0.0000
  0
LINE
  8
21
 10
34.7318
 20
4.5434
 30
0.0000
 11
34.9357
 21
4.5434
 31
0.0000
  0
LINE
  8
21
 10
34.9357
 20
4.5434
 30
0.0000
 11
35.1395
 21
4.3396
 31
0.0000
  0
LINE
  8
21
 10
35.1395
 20
4.3396
 30
0.0000
 11
35.1395
 21
4.1357
 31
0.0000
  0
LINE
  8
21
 10
35.1395
 20
4.3396
 30
0.0000
 11
35.3434
 21
4.5434
 31
0.0000
  0
LINE
  8
21
 10
35.3434
 20
4.5434
 30
0.0000
 11
35.5473
 21
4.5434
 31
0.0000
  0
LINE
  8
21
 10
35.5473
 20
4.5434
 30
0.0000
 11
35.7511
 21
4.3396
 31
0.0000
  0
LINE
  8
21
 10
35.7511
 20
4.3396
 30
0.0000
 11
35.7511
 21
3.9318
 31
0.0000
  0
LINE
  8
21
 10
35.7511
 20
3.9318
 30
0.0000
 11
35.5473
 21
3.7280
 31
0.0000
  0
LINE
  8
21
 10
35.7511
 20
5.8325
 30
0.0000
 11
35.7511
 21
5.0171
 31
0.0000
  0
LINE
  8
21
 10
35.7511
 20
5.0171
 30
0.0000
 11
34.9357
 21
5.8325
 31
0.0000
  0
LINE
  8
21
 10
34.9357
 20
5.8325
 30
0.0000
 11
34.7318
 21
5.8325
 31
0.0000
  0
LINE
  8
21
 10
34.7318
 20
5.8325
 30
0.0000
 11
34.5279
 21
5.6287
 31
0.0000
  0
LINE
  8
21
 10
34.5279
 20
5.6287
 30
0.0000
 11
34.5279
 21
5.2209
 31
0.0000
  0
LINE
  8
21
 10
34.5279
 20
5.2209
 30
0.0000
 11
34.7318
 21
5.0171
 31
0.0000
  0
LINE
  8
21
 10
37.0679
 20
2.4389
 30
0.0000
 11
38.0873
 21
2.4389
 31
0.0000
  0
LINE
  8
21
 10
38.0873
 20
2.4389
 30
0.0000
 11
38.2911
 21
2.6427
 31
0.0000
  0
LINE
  8
21
 10
38.2911
 20
2.6427
 30
0.0000
 11
38.2911
 21
3.0505
 31
0.0000
  0
LINE
  8
21
 10
38.2911
 20
3.0505
 30
0.0000
 11
38.0873
 21
3.2543
 31
0.0000
  0
LINE
  8
21
 10
38.0873
 20
3.2543
 30
0.0000
 11
37.0679
 21
3.2543
 31
0.0000
  0
LINE
  8
21
 10
38.2911
 20
3.7280
 30
0.0000
 11
37.0679
 21
3.7280
 31
0.0000
  0
LINE
  8
21
 10
37.0679
 20
3.7280
 30
0.0000
 11
37.0679
 21
4.3396
 31
0.0000
  0
LINE
  8
21
 10
37.0679
 20
4.3396
 30
0.0000
 11
37.2718
 21
4.5434
 31
0.0000
  0
LINE
  8
21
 10
37.2718
 20
4.5434
 30
0.0000
 11
37.6795
 21
4.5434
 31
0.0000
  0
LINE
  8
21
 10
37.6795
 20
4.5434
 30
0.0000
 11
37.8834
 21
4.3396
 31
0.0000
  0
LINE
  8
21
 10
37.8834
 20
4.3396
 30
0.0000
 11
37.8834
 21
3.7280
 31
0.0000
  0
LINE
  8
21
 10
40.8311
 20
2.4389
 30
0.0000
 11
39.6079
 21
2.4389
 31
0.0000
  0
LINE
  8
21
 10
39.6079
 20
2.4389
 30
0.0000
 11
39.6079
 21
3.0505
 31
0.0000
  0
LINE
  8
21
 10
39.6079
 20
3.0505
 30
0.0000
 11
39.8118
 21
3.2543
 31
0.0000
  0
LINE
  8
21
 10
39.8118
 20
3.2543
 30
0.0000
 11
40.2195
 21
3.2543
 31
0.0000
  0
LINE
  8
21
 10
40.2195
 20
3.2543
 30
0.0000
 11
40.4234
 21
3.0505
 31
0.0000
  0
LINE
  8
21
 10
40.4234
 20
3.0505
 30
0.0000
 11
40.4234
 21
2.4389
 31
0.0000
  0
LINE
  8
21
 10
40.4234
 20
2.8466
 30
0.0000
 11
40.8311
 21
3.2543
 31
0.0000
  0
LINE
  8
21
 10
39.8118
 20
4.5434
 30
0.0000
 11
39.6079
 21
4.3396
 31
0.0000
  0
LINE
  8
21
 10
39.6079
 20
4.3396
 30
0.0000
 11
39.6079
 21
3.9318
 31
0.0000
  0
LINE
  8
21
 10
39.6079
 20
3.9318
 30
0.0000
 11
39.8118
 21
3.7280
 31
0.0000
  0
LINE
  8
21
 10
39.8118
 20
3.7280
 30
0.0000
 11
40.6273
 21
3.7280
 31
0.0000
  0
LINE
  8
21
 10
40.6273
 20
3.7280
 30
0.0000
 11
40.8311
 21
3.9318
 31
0.0000
  0
LINE
  8
21
 10
40.8311
 20
3.9318
 30
0.0000
 11
40.8311
 21
4.3396
 31
0.0000
  0
LINE
  8
21
 10
40.8311
 20
4.3396
 30
0.0000
 11
40.6273
 21
4.5434
 31
0.0000
  0
LINE
  8
21
 10
40.6273
 20
4.5434
 30
0.0000
 11
40.2195
 21
4.5434
 31
0.0000
  0
LINE
  8
21
 10
40.2195
 20
4.5434
 30
0.0000
 11
40.2195
 21
4.1357
 31
0.0000
  0
LINE
  8
21
 10
40.8311
 20
5.4248
 30
0.0000
 11
39.6079
 21
5.4248
 31
0.0000
  0
LINE
  8
21
 10
39.6079
 20
5.0171
 30
0.0000
 11
39.6079
 21
5.8325
 31
0.0000
  0
LINE
  8
21
 10
42.1479
 20
2.4389
 30
0.0000
 11
43.3711
 21
2.4389
 31
0.0000
  0
LINE
  8
21
 10
43.3711
 20
2.4389
 30
0.0000
 11
43.3711
 21
3.0505
 31
0.0000
  0
LINE
  8
21
 10
43.3711
 20
3.0505
 30
0.0000
 11
43.1673
 21
3.2543
 31
0.0000
  0
LINE
  8
21
 10
43.1673
 20
3.2543
 30
0.0000
 11
42.3518
 21
3.2543
 31
0.0000
  0
LINE
  8
21
 10
42.3518
 20
3.2543
 30
0.0000
 11
42.1479
 21
3.0505
 31
0.0000
  0
LINE
  8
21
 10
42.1479
 20
3.0505
 30
0.0000
 11
42.1479
 21
2.4389
 31
0.0000
  0
LINE
  8
21
 10
42.1479
 20
3.7280
 30
0.0000
 11
43.3711
 21
3.7280
 31
0.0000
  0
LINE
  8
21
 10
43.3711
 20
3.7280
 30
0.0000
 11
42.9634
 21
4.1357
 31
0.0000
  0
LINE
  8
21
 10
42.9634
 20
4.1357
 30
0.0000
 11
43.3711
 21
4.5434
 31
0.0000
  0
LINE
  8
21
 10
43.3711
 20
4.5434
 30
0.0000
 11
42.1479
 21
4.5434
 31
0.0000
  0
LINE
  8
21
 10
43.3711
 20
5.0171
 30
0.0000
 11
42.1479
 21
5.0171
 31
0.0000
  0
LINE
  8
21
 10
42.1479
 20
5.0171
 30
0.0000
 11
43.3711
 21
5.8325
 31
0.0000
  0
LINE
  8
21
 10
43.3711
 20
5.8325
 30
0.0000
 11
42.1479
 21
5.8325
 31
0.0000
  0
LINE
  8
21
 10
44.6879
 20
2.4389
 30
0.0000
 11
45.9111
 21
2.4389
 31
0.0000
  0
LINE
  8
21
 10
45.9111
 20
2.4389
 30
0.0000
 11
45.9111
 21
3.2543
 31
0.0000
  0
LINE
  8
21
 10
45.9111
 20
3.7280
 30
0.0000
 11
44.6879
 21
3.7280
 31
0.0000
  0
LINE
  8
21
 10
44.6879
 20
3.7280
 30
0.0000
 11
44.6879
 21
4.5434
 31
0.0000
  0
LINE
  8
21
 10
45.2995
 20
3.7280
 30
0.0000
 11
45.2995
 21
4.1357
 31
0.0000
  0
LINE
  8
21
 10
45.9111
 20
5.4248
 30
0.0000
 11
44.6879
 21
5.4248
 31
0.0000
  0
LINE
  8
21
 10
44.6879
 20
5.0171
 30
0.0000
 11
44.6879
 21
5.8325
 31
0.0000
  0
LINE
  8
21
 10
2.7311
 20
13.7989
 30
0.0000
 11
1.5079
 21
13.7989
 31
0.0000
  0
LINE
  8
21
 10
1.5079
 20
13.7989
 30
0.0000
 11
1.5079
 21
14.4105
 31
0.0000
  0
LINE
  8
21
 10
1.5079
 20
14.4105
 30
0.0000
 11
1.7118
 21
14.6143
 31
0.0000
  0
LINE
  8
21
 10
1.7118
 20
14.6143
 30
0.0000
 11
1.9157
 21
14.6143
 31
0.0000
  0
LINE
  8
21
 10
1.9157
 20
14.6143
 30
0.0000
 11
2.1195
 21
14.4105
 31
0.0000
  0
LINE
  8
21
 10
2.1195
 20
14.4105
 30
0.0000
 11
2.3234
 21
14.6143
 31
0.0000
  0
LINE
  8
21
 10
2.3234
 20
14.6143
 30
0.0000
 11
2.5273
 21
14.6143
 31
0.0000
  0
LINE
  8
21
 10
2.5273
 20
14.6143
 30
0.0000
 11
2.7311
 21
14.4105
 31
0.0000
  0
LINE
  8
21
 10
2.7311
 20
14.4105
 30
0.0000
 11
2.7311
 21
13.7989
 31
0.0000
  0
LINE
  8
21
 10
2.1195
 20
13.7989
 30
0.0000
 11
2.1195
 21
14.4105
 31
0.0000
  0
LINE
  8
21
 10
1.9157
 20
15.0880
 30
0.0000
 11
1.5079
 21
15.4957
 31
0.0000
  0
LINE
  8
21
 10
1.5079
 20
15.4957
 30
0.0000
 11
2.7311
 21
15.4957
 31
0.0000
  0
LINE
  8
21
 10
2.7311
 20
15.0880
 30
0.0000
 11
2.7311
 21
15.9034
 31
0.0000
  0
LINE
  8
21
 10
5.2711
 20
13.7989
 30
0.0000
 11
4.0479
 21
13.7989
 31
0.0000
  0
LINE
  8
21
 10
4.0479
 20
13.7989
 30
0.0000
 11
4.0479
 21
14.4105
 31
0.0000
  0
LINE
  8
21
 10
4.0479
 20
14.4105
 30
0.0000
 11
4.2518
 21
14.6143
 31
0.0000
  0
LINE
  8
21
 10
4.2518
 20
14.6143
 30
0.0000
 11
4.4557
 21
14.6143
 31
0.0000
  0
LINE
  8
21
 10
4.4557
 20
14.6143
 30
0.0000
 11
4.6595
 21
14.4105
 31
0.0000
  0
LINE
  8
21
 10
4.6595
 20
14.4105
 30
0.0000
 11
4.8634
 21
14.6143
 31
0.0000
  0
LINE
  8
21
 10
4.8634
 20
14.6143
 30
0.0000
 11
5.0673
 21
14.6143
 31
0.0000
  0
LINE
  8
21
 10
5.0673
 20
14.6143
 30
0.0000
 11
5.2711
 21
14.4105
 31
0.0000
  0
LINE
  8
21
 10
5.2711
 20
14.4105
 30
0.0000
 11
5.2711
 21
13.7989
 31
0.0000
  0
LINE
  8
21
 10
4.6595
 20
13.7989
 30
0.0000
 11
4.6595
 21
14.4105
 31
0.0000
  0
LINE
  8
21
 10
5.2711
 20
15.9034
 30
0.0000
 11
5.2711
 21
15.0880
 31
0.0000
  0
LINE
  8
21
 10
5.2711
 20
15.0880
 30
0.0000
 11
4.4557
 21
15.9034
 31
0.0000
  0
LINE
  8
21
 10
4.4557
 20
15.9034
 30
0.0000
 11
4.2518
 21
15.9034
 31
0.0000
  0
LINE
  8
21
 10
4.2518
 20
15.9034
 30
0.0000
 11
4.0479
 21
15.6996
 31
0.0000
  0
LINE
  8
21
 10
4.0479
 20
15.6996
 30
0.0000
 11
4.0479
 21
15.2918
 31
0.0000
  0
LINE
  8
21
 10
4.0479
 20
15.2918
 30
0.0000
 11
4.2518
 21
15.0880
 31
0.0000
  0
LINE
  8
21
 10
7.8111
 20
13.7989
 30
0.0000
 11
6.5879
 21
13.7989
 31
0.0000
  0
LINE
  8
21
 10
6.5879
 20
13.7989
 30
0.0000
 11
6.5879
 21
14.4105
 31
0.0000
  0
LINE
  8
21
 10
6.5879
 20
14.4105
 30
0.0000
 11
6.7918
 21
14.6143
 31
0.0000
  0
LINE
  8
21
 10
6.7918
 20
14.6143
 30
0.0000
 11
6.9957
 21
14.6143
 31
0.0000
  0
LINE
  8
21
 10
6.9957
 20
14.6143
 30
0.0000
 11
7.1995
 21
14.4105
 31
0.0000
  0
LINE
  8
21
 10
7.1995
 20
14.4105
 30
0.0000
 11
7.4034
 21
14.6143
 31
0.0000
  0
LINE
  8
21
 10
7.4034
 20
14.6143
 30
0.0000
 11
7.6073
 21
14.6143
 31
0.0000
  0
LINE
  8
21
 10
7.6073
 20
14.6143
 30
0.0000
 11
7.8111
 21
14.4105
 31
0.0000
  0
LINE
  8
21
 10
7.8111
 20
14.4105
 30
0.0000
 11
7.8111
 21
13.7989
 31
0.0000
  0
LINE
  8
21
 10
7.1995
 20
13.7989
 30
0.0000
 11
7.1995
 21
14.4105
 31
0.0000
  0
LINE
  8
21
 10
6.7918
 20
15.0880
 30
0.0000
 11
6.5879
 21
15.2918
 31
0.0000
  0
LINE
  8
21
 10
6.5879
 20
15.2918
 30
0.0000
 11
6.5879
 21
15.6996
 31
0.0000
  0
LINE
  8
21
 10
6.5879
 20
15.6996
 30
0.0000
 11
6.7918
 21
15.9034
 31
0.0000
  0
LINE
  8
21
 10
6.7918
 20
15.9034
 30
0.0000
 11
6.9957
 21
15.9034
 31
0.0000
  0
LINE
  8
21
 10
6.9957
 20
15.9034
 30
0.0000
 11
7.1995
 21
15.6996
 31
0.0000
  0
LINE
  8
21
 10
7.1995
 20
15.6996
 30
0.0000
 11
7.1995
 21
15.4957
 31
0.0000
  0
LINE
  8
21
 10
7.1995
 20
15.6996
 30
0.0000
 11
7.4034
 21
15.9034
 31
0.0000
  0
LINE
  8
21
 10
7.4034
 20
15.9034
 30
0.0000
 11
7.6073
 21
15.9034
 31
0.0000
  0
LINE
  8
21
 10
7.6073
 20
15.9034
 30
0.0000
 11
7.8111
 21
15.6996
 31
0.0000
  0
LINE
  8
21
 10
7.8111
 20
15.6996
 30
0.0000
 11
7.8111
 21
15.2918
 31
0.0000
  0
LINE
  8
21
 10
7.8111
 20
15.2918
 30
0.0000
 11
7.6073
 21
15.0880
 31
0.0000
  0
LINE
  8
21
 10
10.3511
 20
13.7989
 30
0.0000
 11
9.1279
 21
13.7989
 31
0.0000
  0
LINE
  8
21
 10
9.1279
 20
13.7989
 30
0.0000
 11
9.1279
 21
14.4105
 31
0.0000
  0
LINE
  8
21
 10
9.1279
 20
14.4105
 30
0.0000
 11
9.3318
 21
14.6143
 31
0.0000
  0
LINE
  8
21
 10
9.3318
 20
14.6143
 30
0.0000
 11
9.5357
 21
14.6143
 31
0.0000
  0
LINE
  8
21
 10
9.5357
 20
14.6143
 30
0.0000
 11
9.7395
 21
14.4105
 31
0.0000
  0
LINE
  8
21
 10
9.7395
 20
14.4105
 30
0.0000
 11
9.9434
 21
14.6143
 31
0.0000
  0
LINE
  8
21
 10
9.9434
 20
14.6143
 30
0.0000
 11
10.1473
 21
14.6143
 31
0.0000
  0
LINE
  8
21
 10
10.1473
 20
14.6143
 30
0.0000
 11
10.3511
 21
14.4105
 31
0.0000
  0
LINE
  8
21
 10
10.3511
 20
14.4105
 30
0.0000
 11
10.3511
 21
13.7989
 31
0.0000
  0
LINE
  8
21
 10
9.7395
 20
13.7989
 30
0.0000
 11
9.7395
 21
14.4105
 31
0.0000
  0
LINE
  8
21
 10
10.3511
 20
15.6996
 30
0.0000
 11
9.1279
 21
15.6996
 31
0.0000
  0
LINE
  8
21
 10
9.1279
 20
15.6996
 30
0.0000
 11
9.7395
 21
15.0880
 31
0.0000
  0
LINE
  8
21
 10
9.7395
 20
15.0880
 30
0.0000
 11
9.7395
 21
15.9034
 31
0.0000
  0
LINE
  8
21
 10
12.8911
 20
13.7989
 30
0.0000
 11
11.6679
 21
13.7989
 31
0.0000
  0
LINE
  8
21
 10
11.6679
 20
13.7989
 30
0.0000
 11
11.6679
 21
14.4105
 31
0.0000
  0
LINE
  8
21
 10
11.6679
 20
14.4105
 30
0.0000
 11
11.8718
 21
14.6143
 31
0.0000
  0
LINE
  8
21
 10
11.8718
 20
14.6143
 30
0.0000
 11
12.0757
 21
14.6143
 31
0.0000
  0
LINE
  8
21
 10
12.0757
 20
14.6143
 30
0.0000
 11
12.2795
 21
14.4105
 31
0.0000
  0
LINE
  8
21
 10
12.2795
 20
14.4105
 30
0.0000
 11
12.4834
 21
14.6143
 31
0.0000
  0
LINE
  8
21
 10
12.4834
 20
14.6143
 30
0.0000
 11
12.6873
 21
14.6143
 31
0.0000
  0
LINE
  8
21
 10
12.6873
 20
14.6143
 30
0.0000
 11
12.8911
 21
14.4105
 31
0.0000
  0
LINE
  8
21
 10
12.8911
 20
14.4105
 30
0.0000
 11
12.8911
 21
13.7989
 31
0.0000
  0
LINE
  8
21
 10
12.2795
 20
13.7989
 30
0.0000
 11
12.2795
 21
14.4105
 31
0.0000
  0
LINE
  8
21
 10
11.6679
 20
15.9034
 30
0.0000
 11
11.6679
 21
15.0880
 31
0.0000
  0
LINE
  8
21
 10
11.6679
 20
15.0880
 30
0.0000
 11
12.2795
 21
15.0880
 31
0.0000
  0
LINE
  8
21
 10
12.2795
 20
15.0880
 30
0.0000
 11
12.0757
 21
15.4957
 31
0.0000
  0
LINE
  8
21
 10
12.0757
 20
15.4957
 30
0.0000
 11
12.0757
 21
15.6996
 31
0.0000
  0
LINE
  8
21
 10
12.0757
 20
15.6996
 30
0.0000
 11
12.2795
 21
15.9034
 31
0.0000
  0
LINE
  8
21
 10
12.2795
 20
15.9034
 30
0.0000
 11
12.6873
 21
15.9034
 31
0.0000
  0
LINE
  8
21
 10
12.6873
 20
15.9034
 30
0.0000
 11
12.8911
 21
15.6996
 31
0.0000
  0
LINE
  8
21
 10
12.8911
 20
15.6996
 30
0.0000
 11
12.8911
 21
15.2918
 31
0.0000
  0
LINE
  8
21
 10
12.8911
 20
15.2918
 30
0.0000
 11
12.6873
 21
15.0880
 31
0.0000
  0
LINE
  8
21
 10
15.4311
 20
13.7989
 30
0.0000
 11
14.2079
 21
13.7989
 31
0.0000
  0
LINE
  8
21
 10
14.2079
 20
13.7989
 30
0.0000
 11
14.2079
 21
14.4105
 31
0.0000
  0
LINE
  8
21
 10
14.2079
 20
14.4105
 30
0.0000
 11
14.4118
 21
14.6143
 31
0.0000
  0
LINE
  8
21
 10
14.4118
 20
14.6143
 30
0.0000
 11
14.6157
 21
14.6143
 31
0.0000
  0
LINE
  8
21
 10
14.6157
 20
14.6143
 30
0.0000
 11
14.8195
 21
14.4105
 31
0.0000
  0
LINE
  8
21
 10
14.8195
 20
14.4105
 30
0.0000
 11
15.0234
 21
14.6143
 31
0.0000
  0
LINE
  8
21
 10
15.0234
 20
14.6143
 30
0.0000
 11
15.2273
 21
14.6143
 31
0.0000
  0
LINE
  8
21
 10
15.2273
 20
14.6143
 30
0.0000
 11
15.4311
 21
14.4105
 31
0.0000
  0
LINE
  8
21
 10
15.4311
 20
14.4105
 30
0.0000
 11
15.4311
 21
13.7989
 31
0.0000
  0
LINE
  8
21
 10
14.8195
 20
13.7989
 30
0.0000
 11
14.8195
 21
14.4105
 31
0.0000
  0
LINE
  8
21
 10
14.2079
 20
15.9034
 30
0.0000
 11
14.4118
 21
15.4957
 31
0.0000
  0
LINE
  8
21
 10
14.4118
 20
15.4957
 30
0.0000
 11
14.8195
 21
15.0880
 31
0.0000
  0
LINE
  8
21
 10
14.8195
 20
15.0880
 30
0.0000
 11
15.2273
 21
15.0880
 31
0.0000
  0
LINE
  8
21
 10
15.2273
 20
15.0880
 30
0.0000
 11
15.4311
 21
15.2918
 31
0.0000
  0
LINE
  8
21
 10
15.4311
 20
15.2918
 30
0.0000
 11
15.4311
 21
15.6996
 31
0.0000
  0
LINE
  8
21
 10
15.4311
 20
15.6996
 30
0.0000
 11
15.2273
 21
15.9034
 31
0.0000
  0
LINE
  8
21
 10
15.2273
 20
15.9034
 30
0.0000
 11
15.0234
 21
15.9034
 31
0.0000
  0
LINE
  8
21
 10
15.0234
 20
15.9034
 30
0.0000
 11
14.8195
 21
15.6996
 31
0.0000
  0
LINE
  8
21
 10
14.8195
 20
15.6996
 30
0.0000
 11
14.8195
 21
15.0880
 31
0.0000
  0
LINE
  8
21
 10
17.9711
 20
13.7989
 30
0.0000
 11
16.7479
 21
13.7989
 31
0.0000
  0
LINE
  8
21
 10
16.7479
 20
13.7989
 30
0.0000
 11
16.7479
 21
14.4105
 31
0.0000
  0
LINE
  8
21
 10
16.7479
 20
14.4105
 30
0.0000
 11
16.9518
 21
14.6143
 31
0.0000
  0
LINE
  8
21
 10
16.9518
 20
14.6143
 30
0.0000
 11
17.1557
 21
14.6143
 31
0.0000
  0
LINE
  8
21
 10
17.1557
 20
14.6143
 30
0.0000
 11
17.3595
 21
14.4105
 31
0.0000
  0
LINE
  8
21
 10
17.3595
 20
14.4105
 30
0.0000
 11
17.5634
 21
14.6143
 31
0.0000
  0
LINE
  8
21
 10
17.5634
 20
14.6143
 30
0.0000
 11
17.7673
 21
14.6143
 31
0.0000
  0
LINE
  8
21
 10
17.7673
 20
14.6143
 30
0.0000
 11
17.9711
 21
14.4105
 31
0.0000
  0
LINE
  8
21
 10
17.9711
 20
14.4105
 30
0.0000
 11
17.9711
 21
13.7989
 31
0.0000
  0
LINE
  8
21
 10
17.3595
 20
13.7989
 30
0.0000
 11
17.3595
 21
14.4105
 31
0.0000
  0
LINE
  8
21
 10
16.7479
 20
15.0880
 30
0.0000
 11
16.7479
 21
15.9034
 31
0.0000
  0
LINE
  8
21
 10
16.7479
 20
15.9034
 30
0.0000
 11
16.9518
 21
15.9034
 31
0.0000
  0
LINE
  8
21
 10
16.9518
 20
15.9034
 30
0.0000
 11
17.7673
 21
15.0880
 31
0.0000
  0
LINE
  8
21
 10
17.7673
 20
15.0880
 30
0.0000
 11
17.9711
 21
15.0880
 31
0.0000
  0
LINE
  8
21
 10
20.5111
 20
13.7989
 30
0.0000
 11
19.2879
 21
13.7989
 31
0.0000
  0
LINE
  8
21
 10
19.2879
 20
13.7989
 30
0.0000
 11
19.2879
 21
14.4105
 31
0.0000
  0
LINE
  8
21
 10
19.2879
 20
14.4105
 30
0.0000
 11
19.4918
 21
14.6143
 31
0.0000
  0
LINE
  8
21
 10
19.4918
 20
14.6143
 30
0.0000
 11
19.6957
 21
14.6143
 31
0.0000
  0
LINE
  8
21
 10
19.6957
 20
14.6143
 30
0.0000
 11
19.8995
 21
14.4105
 31
0.0000
  0
LINE
  8
21
 10
19.8995
 20
14.4105
 30
0.0000
 11
20.1034
 21
14.6143
 31
0.0000
  0
LINE
  8
21
 10
20.1034
 20
14.6143
 30
0.0000
 11
20.3073
 21
14.6143
 31
0.0000
  0
LINE
  8
21
 10
20.3073
 20
14.6143
 30
0.0000
 11
20.5111
 21
14.4105
 31
0.0000
  0
LINE
  8
21
 10
20.5111
 20
14.4105
 30
0.0000
 11
20.5111
 21
13.7989
 31
0.0000
  0
LINE
  8
21
 10
19.8995
 20
13.7989
 30
0.0000
 11
19.8995
 21
14.4105
 31
0.0000
  0
LINE
  8
21
 10
19.4918
 20
15.0880
 30
0.0000
 11
19.2879
 21
15.2918
 31
0.0000
  0
LINE
  8
21
 10
19.2879
 20
15.2918
 30
0.0000
 11
19.2879
 21
15.6996
 31
0.0000
  0
LINE
  8
21
 10
19.2879
 20
15.6996
 30
0.0000
 11
19.4918
 21
15.9034
 31
0.0000
  0
LINE
  8
21
 10
19.4918
 20
15.9034
 30
0.0000
 11
19.6957
 21
15.9034
 31
0.0000
  0
LINE
  8
21
 10
19.6957
 20
15.9034
 30
0.0000
 11
19.8995
 21
15.6996
 31
0.0000
  0
LINE
  8
21
 10
19.8995
 20
15.6996
 30
0.0000
 11
20.1034
 21
15.9034
 31
0.0000
  0
LINE
  8
21
 10
20.1034
 20
15.9034
 30
0.0000
 11
20.3073
 21
15.9034
 31
0.0000
  0
LINE
  8
21
 10
20.3073
 20
15.9034
 30
0.0000
 11
20.5111
 21
15.6996
 31
0.0000
  0
LINE
  8
21
 10
20.5111
 20
15.6996
 30
0.0000
 11
20.5111
 21
15.2918
 31
0.0000
  0
LINE
  8
21
 10
20.5111
 20
15.2918
 30
0.0000
 11
20.3073
 21
15.0880
 31
0.0000
  0
LINE
  8
21
 10
20.3073
 20
15.0880
 30
0.0000
 11
20.1034
 21
15.0880
 31
0.0000
  0
LINE
  8
21
 10
20.1034
 20
15.0880
 30
0.0000
 11
19.8995
 21
15.2918
 31
0.0000
  0
LINE
  8
21
 10
19.8995
 20
15.2918
 30
0.0000
 11
19.6957
 21
15.0880
 31
0.0000
  0
LINE
  8
21
 10
19.6957
 20
15.0880
 30
0.0000
 11
19.4918
 21
15.0880
 31
0.0000
  0
LINE
  8
21
 10
19.8995
 20
15.2918
 30
0.0000
 11
19.8995
 21
15.6996
 31
0.0000
  0
LINE
  8
21
 10
23.0511
 20
13.7989
 30
0.0000
 11
21.8279
 21
13.7989
 31
0.0000
  0
LINE
  8
21
 10
21.8279
 20
13.7989
 30
0.0000
 11
21.8279
 21
14.4105
 31
0.0000
  0
LINE
  8
21
 10
21.8279
 20
14.4105
 30
0.0000
 11
22.0318
 21
14.6143
 31
0.0000
  0
LINE
  8
21
 10
22.0318
 20
14.6143
 30
0.0000
 11
22.2357
 21
14.6143
 31
0.0000
  0
LINE
  8
21
 10
22.2357
 20
14.6143
 30
0.0000
 11
22.4395
 21
14.4105
 31
0.0000
  0
LINE
  8
21
 10
22.4395
 20
14.4105
 30
0.0000
 11
22.6434
 21
14.6143
 31
0.0000
  0
LINE
  8
21
 10
22.6434
 20
14.6143
 30
0.0000
 11
22.8473
 21
14.6143
 31
0.0000
  0
LINE
  8
21
 10
22.8473
 20
14.6143
 30
0.0000
 11
23.0511
 21
14.4105
 31
0.0000
  0
LINE
  8
21
 10
23.0511
 20
14.4105
 30
0.0000
 11
23.0511
 21
13.7989
 31
0.0000
  0
LINE
  8
21
 10
22.4395
 20
13.7989
 30
0.0000
 11
22.4395
 21
14.4105
 31
0.0000
  0
LINE
  8
21
 10
22.8473
 20
15.0880
 30
0.0000
 11
23.0511
 21
15.2918
 31
0.0000
  0
LINE
  8
21
 10
23.0511
 20
15.2918
 30
0.0000
 11
23.0511
 21
15.6996
 31
0.0000
  0
LINE
  8
21
 10
23.0511
 20
15.6996
 30
0.0000
 11
22.8473
 21
15.9034
 31
0.0000
  0
LINE
  8
21
 10
22.8473
 20
15.9034
 30
0.0000
 11
22.0318
 21
15.9034
 31
0.0000
  0
LINE
  8
21
 10
22.0318
 20
15.9034
 30
0.0000
 11
21.8279
 21
15.6996
 31
0.0000
  0
LINE
  8
21
 10
21.8279
 20
15.6996
 30
0.0000
 11
21.8279
 21
15.2918
 31
0.0000
  0
LINE
  8
21
 10
21.8279
 20
15.2918
 30
0.0000
 11
22.0318
 21
15.0880
 31
0.0000
  0
LINE
  8
21
 10
22.0318
 20
15.0880
 30
0.0000
 11
22.2357
 21
15.0880
 31
0.0000
  0
LINE
  8
21
 10
22.2357
 20
15.0880
 30
0.0000
 11
22.4395
 21
15.2918
 31
0.0000
  0
LINE
  8
21
 10
22.4395
 20
15.2918
 30
0.0000
 11
22.4395
 21
15.9034
 31
0.0000
  0
LINE
  8
21
 10
25.5911
 20
12.5989
 30
0.0000
 11
24.3679
 21
12.5989
 31
0.0000
  0
LINE
  8
21
 10
24.3679
 20
12.5989
 30
0.0000
 11
24.3679
 21
13.2105
 31
0.0000
  0
LINE
  8
21
 10
24.3679
 20
13.2105
 30
0.0000
 11
24.5718
 21
13.4143
 31
0.0000
  0
LINE
  8
21
 10
24.5718
 20
13.4143
 30
0.0000
 11
24.7757
 21
13.4143
 31
0.0000
  0
LINE
  8
21
 10
24.7757
 20
13.4143
 30
0.0000
 11
24.9795
 21
13.2105
 31
0.0000
  0
LINE
  8
21
 10
24.9795
 20
13.2105
 30
0.0000
 11
25.1834
 21
13.4143
 31
0.0000
  0
LINE
  8
21
 10
25.1834
 20
13.4143
 30
0.0000
 11
25.3873
 21
13.4143
 31
0.0000
  0
LINE
  8
21
 10
25.3873
 20
13.4143
 30
0.0000
 11
25.5911
 21
13.2105
 31
0.0000
  0
LINE
  8
21
 10
25.5911
 20
13.2105
 30
0.0000
 11
25.5911
 21
12.5989
 31
0.0000
  0
LINE
  8
21
 10
24.9795
 20
12.5989
 30
0.0000
 11
24.9795
 21
13.2105
 31
0.0000
  0
LINE
  8
21
 10
24.7757
 20
13.8880
 30
0.0000
 11
24.3679
 21
14.2957
 31
0.0000
  0
LINE
  8
21
 10
24.3679
 20
14.2957
 30
0.0000
 11
25.5911
 21
14.2957
 31
0.0000
  0
LINE
  8
21
 10
25.5911
 20
13.8880
 30
0.0000
 11
25.5911
 21
14.7034
 31
0.0000
  0
LINE
  8
21
 10
25.3873
 20
15.1771
 30
0.0000
 11
24.5718
 21
15.1771
 31
0.0000
  0
LINE
  8
21
 10
24.5718
 20
15.1771
 30
0.0000
 11
24.3679
 21
15.3809
 31
0.0000
  0
LINE
  8
21
 10
24.3679
 20
15.3809
 30
0.0000
 11
24.3679
 21
15.7887
 31
0.0000
  0
LINE
  8
21
 10
24.3679
 20
15.7887
 30
0.0000
 11
24.5718
 21
15.9925
 31
0.0000
  0
LINE
  8
21
 10
24.5718
 20
15.9925
 30
0.0000
 11
25.3873
 21
15.9925
 31
0.0000
  0
LINE
  8
21
 10
25.3873
 20
15.9925
 30
0.0000
 11
25.5911
 21
15.7887
 31
0.0000
  0
LINE
  8
21
 10
25.5911
 20
15.7887
 30
0.0000
 11
25.5911
 21
15.3809
 31
0.0000
  0
LINE
  8
21
 10
25.5911
 20
15.3809
 30
0.0000
 11
25.3873
 21
15.1771
 31
0.0000
  0
LINE
  8
21
 10
25.3873
 20
15.1771
 30
0.0000
 11
24.5718
 21
15.9925
 31
0.0000
  0
LINE
  8
21
 10
28.1311
 20
12.5989
 30
0.0000
 11
26.9079
 21
12.5989
 31
0.0000
  0
LINE
  8
21
 10
26.9079
 20
12.5989
 30
0.0000
 11
26.9079
 21
13.2105
 31
0.0000
  0
LINE
  8
21
 10
26.9079
 20
13.2105
 30
0.0000
 11
27.1118
 21
13.4143
 31
0.0000
  0
LINE
  8
21
 10
27.1118
 20
13.4143
 30
0.0000
 11
27.3157
 21
13.4143
 31
0.0000
  0
LINE
  8
21
 10
27.3157
 20
13.4143
 30
0.0000
 11
27.5195
 21
13.2105
 31
0.0000
  0
LINE
  8
21
 10
27.5195
 20
13.2105
 30
0.0000
 11
27.7234
 21
13.4143
 31
0.0000
  0
LINE
  8
21
 10
27.7234
 20
13.4143
 30
0.0000
 11
27.9273
 21
13.4143
 31
0.0000
  0
LINE
  8
21
 10
27.9273
 20
13.4143
 30
0.0000
 11
28.1311
 21
13.2105
 31
0.0000
  0
LINE
  8
21
 10
28.1311
 20
13.2105
 30
0.0000
 11
28.1311
 21
12.5989
 31
0.0000
  0
LINE
  8
21
 10
27.5195
 20
12.5989
 30
0.0000
 11
27.5195
 21
13.2105
 31
0.0000
  0
LINE
  8
21
 10
27.3157
 20
13.8880
 30
0.0000
 11
26.9079
 21
14.2957
 31
0.0000
  0
LINE
  8
21
 10
26.9079
 20
14.2957
 30
0.0000
 11
28.1311
 21
14.2957
 31
0.0000
  0
LINE
  8
21
 10
28.1311
 20
13.8880
 30
0.0000
 11
28.1311
 21
14.7034
 31
0.0000
  0
LINE
  8
21
 10
27.3157
 20
15.1771
 30
0.0000
 11
26.9079
 21
15.5848
 31
0.0000
  0
LINE
  8
21
 10
26.9079
 20
15.5848
 30
0.0000
 11
28.1311
 21
15.5848
 31
0.0000
  0
LINE
  8
21
 10
28.1311
 20
15.1771
 30
0.0000
 11
28.1311
 21
15.9925
 31
0.0000
  0
LINE
  8
21
 10
30.6711
 20
12.5989
 30
0.0000
 11
29.4479
 21
12.5989
 31
0.0000
  0
LINE
  8
21
 10
29.4479
 20
12.5989
 30
0.0000
 11
29.4479
 21
13.2105
 31
0.0000
  0
LINE
  8
21
 10
29.4479
 20
13.2105
 30
0.0000
 11
29.6518
 21
13.4143
 31
0.0000
  0
LINE
  8
21
 10
29.6518
 20
13.4143
 30
0.0000
 11
29.8557
 21
13.4143
 31
0.0000
  0
LINE
  8
21
 10
29.8557
 20
13.4143
 30
0.0000
 11
30.0595
 21
13.2105
 31
0.0000
  0
LINE
  8
21
 10
30.0595
 20
13.2105
 30
0.0000
 11
30.2634
 21
13.4143
 31
0.0000
  0
LINE
  8
21
 10
30.2634
 20
13.4143
 30
0.0000
 11
30.4673
 21
13.4143
 31
0.0000
  0
LINE
  8
21
 10
30.4673
 20
13.4143
 30
0.0000
 11
30.6711
 21
13.2105
 31
0.0000
  0
LINE
  8
21
 10
30.6711
 20
13.2105
 30
0.0000
 11
30.6711
 21
12.5989
 31
0.0000
  0
LINE
  8
21
 10
30.0595
 20
12.5989
 30
0.0000
 11
30.0595
 21
13.2105
 31
0.0000
  0
LINE
  8
21
 10
29.8557
 20
13.8880
 30
0.0000
 11
29.4479
 21
14.2957
 31
0.0000
  0
LINE
  8
21
 10
29.4479
 20
14.2957
 30
0.0000
 11
30.6711
 21
14.2957
 31
0.0000
  0
LINE
  8
21
 10
30.6711
 20
13.8880
 30
0.0000
 11
30.6711
 21
14.7034
 31
0.0000
  0
LINE
  8
21
 10
30.6711
 20
15.9925
 30
0.0000
 11
30.6711
 21
15.1771
 31
0.0000
  0
LINE
  8
21
 10
30.6711
 20
15.1771
 30
0.0000
 11
29.8557
 21
15.9925
 31
0.0000
  0
LINE
  8
21
 10
29.8557
 20
15.9925
 30
0.0000
 11
29.6518
 21
15.9925
 31
0.0000
  0
LINE
  8
21
 10
29.6518
 20
15.9925
 30
0.0000
 11
29.4479
 21
15.7887
 31
0.0000
  0
LINE
  8
21
 10
29.4479
 20
15.7887
 30
0.0000
 11
29.4479
 21
15.3809
 31
0.0000
  0
LINE
  8
21
 10
29.4479
 20
15.3809
 30
0.0000
 11
29.6518
 21
15.1771
 31
0.0000
  0
LINE
  8
21
 10
33.2111
 20
12.5989
 30
0.0000
 11
31.9879
 21
12.5989
 31
0.0000
  0
LINE
  8
21
 10
31.9879
 20
12.5989
 30
0.0000
 11
31.9879
 21
13.2105
 31
0.0000
  0
LINE
  8
21
 10
31.9879
 20
13.2105
 30
0.0000
 11
32.1918
 21
13.4143
 31
0.0000
  0
LINE
  8
21
 10
32.1918
 20
13.4143
 30
0.0000
 11
32.3957
 21
13.4143
 31
0.0000
  0
LINE
  8
21
 10
32.3957
 20
13.4143
 30
0.0000
 11
32.5995
 21
13.2105
 31
0.0000
  0
LINE
  8
21
 10
32.5995
 20
13.2105
 30
0.0000
 11
32.8034
 21
13.4143
 31
0.0000
  0
LINE
  8
21
 10
32.8034
 20
13.4143
 30
0.0000
 11
33.0073
 21
13.4143
 31
0.0000
  0
LINE
  8
21
 10
33.0073
 20
13.4143
 30
0.0000
 11
33.2111
 21
13.2105
 31
0.0000
  0
LINE
  8
21
 10
33.2111
 20
13.2105
 30
0.0000
 11
33.2111
 21
12.5989
 31
0.0000
  0
LINE
  8
21
 10
32.5995
 20
12.5989
 30
0.0000
 11
32.5995
 21
13.2105
 31
0.0000
  0
LINE
  8
21
 10
32.3957
 20
13.8880
 30
0.0000
 11
31.9879
 21
14.2957
 31
0.0000
  0
LINE
  8
21
 10
31.9879
 20
14.2957
 30
0.0000
 11
33.2111
 21
14.2957
 31
0.0000
  0
LINE
  8
21
 10
33.2111
 20
13.8880
 30
0.0000
 11
33.2111
 21
14.7034
 31
0.0000
  0
LINE
  8
21
 10
32.1918
 20
15.1771
 30
0.0000
 11
31.9879
 21
15.3809
 31
0.0000
  0
LINE
  8
21
 10
31.9879
 20
15.3809
 30
0.0000
 11
31.9879
 21
15.7887
 31
0.0000
  0
LINE
  8
21
 10
31.9879
 20
15.7887
 30
0.0000
 11
32.1918
 21
15.9925
 31
0.0000
  0
LINE
  8
21
 10
32.1918
 20
15.9925
 30
0.0000
 11
32.3957
 21
15.9925
 31
0.0000
  0
LINE
  8
21
 10
32.3957
 20
15.9925
 30
0.0000
 11
32.5995
 21
15.7887
 31
0.0000
  0
LINE
  8
21
 10
32.5995
 20
15.7887
 30
0.0000
 11
32.5995
 21
15.5848
 31
0.0000
  0
LINE
  8
21
 10
32.5995
 20
15.7887
 30
0.0000
 11
32.8034
 21
15.9925
 31
0.0000
  0
LINE
  8
21
 10
32.8034
 20
15.9925
 30
0.0000
 11
33.0073
 21
15.9925
 31
0.0000
  0
LINE
  8
21
 10
33.0073
 20
15.9925
 30
0.0000
 11
33.2111
 21
15.7887
 31
0.0000
  0
LINE
  8
21
 10
33.2111
 20
15.7887
 30
0.0000
 11
33.2111
 21
15.3809
 31
0.0000
  0
LINE
  8
21
 10
33.2111
 20
15.3809
 30
0.0000
 11
33.0073
 21
15.1771
 31
0.0000
  0
LINE
  8
21
 10
35.7511
 20
12.5989
 30
0.0000
 11
34.5279
 21
12.5989
 31
0.0000
  0
LINE
  8
21
 10
34.5279
 20
12.5989
 30
0.0000
 11
34.5279
 21
13.2105
 31
0.0000
  0
LINE
  8
21
 10
34.5279
 20
13.2105
 30
0.0000
 11
34.7318
 21
13.4143
 31
0.0000
  0
LINE
  8
21
 10
34.7318
 20
13.4143
 30
0.0000
 11
34.9357
 21
13.4143
 31
0.0000
  0
LINE
  8
21
 10
34.9357
 20
13.4143
 30
0.0000
 11
35.1395
 21
13.2105
 31
0.0000
  0
LINE
  8
21
 10
35.1395
 20
13.2105
 30
0.0000
 11
35.3434
 21
13.4143
 31
0.0000
  0
LINE
  8
21
 10
35.3434
 20
13.4143
 30
0.0000
 11
35.5473
 21
13.4143
 31
0.0000
  0
LINE
  8
21
 10
35.5473
 20
13.4143
 30
0.0000
 11
35.7511
 21
13.2105
 31
0.0000
  0
LINE
  8
21
 10
35.7511
 20
13.2105
 30
0.0000
 11
35.7511
 21
12.5989
 31
0.0000
  0
LINE
  8
21
 10
35.1395
 20
12.5989
 30
0.0000
 11
35.1395
 21
13.2105
 31
0.0000
  0
LINE
  8
21
 10
34.9357
 20
13.8880
 30
0.0000
 11
34.5279
 21
14.2957
 31
0.0000
  0
LINE
  8
21
 10
34.5279
 20
14.2957
 30
0.0000
 11
35.7511
 21
14.2957
 31
0.0000
  0
LINE
  8
21
 10
35.7511
 20
13.8880
 30
0.0000
 11
35.7511
 21
14.7034
 31
0.0000
  0
LINE
  8
21
 10
35.7511
 20
15.7887
 30
0.0000
 11
34.5279
 21
15.7887
 31
0.0000
  0
LINE
  8
21
 10
34.5279
 20
15.7887
 30
0.0000
 11
35.1395
 21
15.1771
 31
0.0000
  0
LINE
  8
21
 10
35.1395
 20
15.1771
 30
0.0000
 11
35.1395
 21
15.9925
 31
0.0000
  0
LINE
  8
21
 10
38.2911
 20
12.5989
 30
0.0000
 11
37.0679
 21
12.5989
 31
0.0000
  0
LINE
  8
21
 10
37.0679
 20
12.5989
 30
0.0000
 11
37.0679
 21
13.2105
 31
0.0000
  0
LINE
  8
21
 10
37.0679
 20
13.2105
 30
0.0000
 11
37.2718
 21
13.4143
 31
0.0000
  0
LINE
  8
21
 10
37.2718
 20
13.4143
 30
0.0000
 11
37.4757
 21
13.4143
 31
0.0000
  0
LINE
  8
21
 10
37.4757
 20
13.4143
 30
0.0000
 11
37.6795
 21
13.2105
 31
0.0000
  0
LINE
  8
21
 10
37.6795
 20
13.2105
 30
0.0000
 11
37.8834
 21
13.4143
 31
0.0000
  0
LINE
  8
21
 10
37.8834
 20
13.4143
 30
0.0000
 11
38.0873
 21
13.4143
 31
0.0000
  0
LINE
  8
21
 10
38.0873
 20
13.4143
 30
0.0000
 11
38.2911
 21
13.2105
 31
0.0000
  0
LINE
  8
21
 10
38.2911
 20
13.2105
 30
0.0000
 11
38.2911
 21
12.5989
 31
0.0000
  0
LINE
  8
21
 10
37.6795
 20
12.5989
 30
0.0000
 11
37.6795
 21
13.2105
 31
0.0000
  0
LINE
  8
21
 10
37.4757
 20
13.8880
 30
0.0000
 11
37.0679
 21
14.2957
 31
0.0000
  0
LINE
  8
21
 10
37.0679
 20
14.2957
 30
0.0000
 11
38.2911
 21
14.2957
 31
0.0000
  0
LINE
  8
21
 10
38.2911
 20
13.8880
 30
0.0000
 11
38.2911
 21
14.7034
 31
0.0000
  0
LINE
  8
21
 10
37.0679
 20
15.9925
 30
0.0000
 11
37.0679
 21
15.1771
 31
0.0000
  0
LINE
  8
21
 10
37.0679
 20
15.1771
 30
0.0000
 11
37.6795
 21
15.1771
 31
0.0000
  0
LINE
  8
21
 10
37.6795
 20
15.1771
 30
0.0000
 11
37.4757
 21
15.5848
 31
0.0000
  0
LINE
  8
21
 10
37.4757
 20
15.5848
 30
0.0000
 11
37.4757
 21
15.7887
 31
0.0000
  0
LINE
  8
21
 10
37.4757
 20
15.7887
 30
0.0000
 11
37.6795
 21
15.9925
 31
0.0000
  0
LINE
  8
21
 10
37.6795
 20
15.9925
 30
0.0000
 11
38.0873
 21
15.9925
 31
0.0000
  0
LINE
  8
21
 10
38.0873
 20
15.9925
 30
0.0000
 11
38.2911
 21
15.7887
 31
0.0000
  0
LINE
  8
21
 10
38.2911
 20
15.7887
 30
0.0000
 11
38.2911
 21
15.3809
 31
0.0000
  0
LINE
  8
21
 10
38.2911
 20
15.3809
 30
0.0000
 11
38.0873
 21
15.1771
 31
0.0000
  0
LINE
  8
21
 10
40.8311
 20
12.5989
 30
0.0000
 11
39.6079
 21
12.5989
 31
0.0000
  0
LINE
  8
21
 10
39.6079
 20
12.5989
 30
0.0000
 11
39.6079
 21
13.2105
 31
0.0000
  0
LINE
  8
21
 10
39.6079
 20
13.2105
 30
0.0000
 11
39.8118
 21
13.4143
 31
0.0000
  0
LINE
  8
21
 10
39.8118
 20
13.4143
 30
0.0000
 11
40.0157
 21
13.4143
 31
0.0000
  0
LINE
  8
21
 10
40.0157
 20
13.4143
 30
0.0000
 11
40.2195
 21
13.2105
 31
0.0000
  0
LINE
  8
21
 10
40.2195
 20
13.2105
 30
0.0000
 11
40.4234
 21
13.4143
 31
0.0000
  0
LINE
  8
21
 10
40.4234
 20
13.4143
 30
0.0000
 11
40.6273
 21
13.4143
 31
0.0000
  0
LINE
  8
21
 10
40.6273
 20
13.4143
 30
0.0000
 11
40.8311
 21
13.2105
 31
0.0000
  0
LINE
  8
21
 10
40.8311
 20
13.2105
 30
0.0000
 11
40.8311
 21
12.5989
 31
0.0000
  0
LINE
  8
21
 10
40.2195
 20
12.5989
 30
0.0000
 11
40.2195
 21
13.2105
 31
0.0000
  0
LINE
  8
21
 10
40.0157
 20
13.8880
 30
0.0000
 11
39.6079
 21
14.2957
 31
0.0000
  0
LINE
  8
21
 10
39.6079
 20
14.2957
 30
0.0000
 11
40.8311
 21
14.2957
 31
0.0000
  0
LINE
  8
21
 10
40.8311
 20
13.8880
 30
0.0000
 11
40.8311
 21
14.7034
 31
0.0000
  0
LINE
  8
21
 10
39.6079
 20
15.9925
 30
0.0000
 11
39.8118
 21
15.5848
 31
0.0000
  0
LINE
  8
21
 10
39.8118
 20
15.5848
 30
0.0000
 11
40.2195
 21
15.1771
 31
0.0000
  0
LINE
  8
21
 10
40.2195
 20
15.1771
 30
0.0000
 11
40.6273
 21
15.1771
 31
0.0000
  0
LINE
  8
21
 10
40.6273
 20
15.1771
 30
0.0000
 11
40.8311
 21
15.3809
 31
0.0000
  0
LINE
  8
21
 10
40.8311
 20
15.3809
 30
0.0000
 11
40.8311
 21
15.7887
 31
0.0000
  0
LINE
  8
21
 10
40.8311
 20
15.7887
 30
0.0000
 11
40.6273
 21
15.9925
 31
0.0000
  0
LINE
  8
21
 10
40.6273
 20
15.9925
 30
0.0000
 11
40.4234
 21
15.9925
 31
0.0000
  0
LINE
  8
21
 10
40.4234
 20
15.9925
 30
0.0000
 11
40.2195
 21
15.7887
 31
0.0000
  0
LINE
  8
21
 10
40.2195
 20
15.7887
 30
0.0000
 11
40.2195
 21
15.1771
 31
0.0000
  0
LINE
  8
21
 10
43.3711
 20
12.5989
 30
0.0000
 11
42.1479
 21
12.5989
 31
0.0000
  0
LINE
  8
21
 10
42.1479
 20
12.5989
 30
0.0000
 11
42.1479
 21
13.2105
 31
0.0000
  0
LINE
  8
21
 10
42.1479
 20
13.2105
 30
0.0000
 11
42.3518
 21
13.4143
 31
0.0000
  0
LINE
  8
21
 10
42.3518
 20
13.4143
 30
0.0000
 11
42.5557
 21
13.4143
 31
0.0000
  0
LINE
  8
21
 10
42.5557
 20
13.4143
 30
0.0000
 11
42.7595
 21
13.2105
 31
0.0000
  0
LINE
  8
21
 10
42.7595
 20
13.2105
 30
0.0000
 11
42.9634
 21
13.4143
 31
0.0000
  0
LINE
  8
21
 10
42.9634
 20
13.4143
 30
0.0000
 11
43.1673
 21
13.4143
 31
0.0000
  0
LINE
  8
21
 10
43.1673
 20
13.4143
 30
0.0000
 11
43.3711
 21
13.2105
 31
0.0000
  0
LINE
  8
21
 10
43.3711
 20
13.2105
 30
0.0000
 11
43.3711
 21
12.5989
 31
0.0000
  0
LINE
  8
21
 10
42.7595
 20
12.5989
 30
0.0000
 11
42.7595
 21
13.2105
 31
0.0000
  0
LINE
  8
21
 10
42.5557
 20
13.8880
 30
0.0000
 11
42.1479
 21
14.2957
 31
0.0000
  0
LINE
  8
21
 10
42.1479
 20
14.2957
 30
0.0000
 11
43.3711
 21
14.2957
 31
0.0000
  0
LINE
  8
21
 10
43.3711
 20
13.8880
 30
0.0000
 11
43.3711
 21
14.7034
 31
0.0000
  0
LINE
  8
21
 10
42.1479
 20
15.1771
 30
0.0000
 11
42.1479
 21
15.9925
 31
0.0000
  0
LINE
  8
21
 10
42.1479
 20
15.9925
 30
0.0000
 11
42.3518
 21
15.9925
 31
0.0000
  0
LINE
  8
21
 10
42.3518
 20
15.9925
 30
0.0000
 11
43.1673
 21
15.1771
 31
0.0000
  0
LINE
  8
21
 10
43.1673
 20
15.1771
 30
0.0000
 11
43.3711
 21
15.1771
 31
0.0000
  0
LINE
  8
21
 10
45.9111
 20
12.5989
 30
0.0000
 11
44.6879
 21
12.5989
 31
0.0000
  0
LINE
  8
21
 10
44.6879
 20
12.5989
 30
0.0000
 11
44.6879
 21
13.2105
 31
0.0000
  0
LINE
  8
21
 10
44.6879
 20
13.2105
 30
0.0000
 11
44.8918
 21
13.4143
 31
0.0000
  0
LINE
  8
21
 10
44.8918
 20
13.4143
 30
0.0000
 11
45.0957
 21
13.4143
 31
0.0000
  0
LINE
  8
21
 10
45.0957
 20
13.4143
 30
0.0000
 11
45.2995
 21
13.2105
 31
0.0000
  0
LINE
  8
21
 10
45.2995
 20
13.2105
 30
0.0000
 11
45.5034
 21
13.4143
 31
0.0000
  0
LINE
  8
21
 10
45.5034
 20
13.4143
 30
0.0000
 11
45.7073
 21
13.4143
 31
0.0000
  0
LINE
  8
21
 10
45.7073
 20
13.4143
 30
0.0000
 11
45.9111
 21
13.2105
 31
0.0000
  0
LINE
  8
21
 10
45.9111
 20
13.2105
 30
0.0000
 11
45.9111
 21
12.5989
 31
0.0000
  0
LINE
  8
21
 10
45.2995
 20
12.5989
 30
0.0000
 11
45.2995
 21
13.2105
 31
0.0000
  0
LINE
  8
21
 10
45.0957
 20
13.8880
 30
0.0000
 11
44.6879
 21
14.2957
 31
0.0000
  0
LINE
  8
21
 10
44.6879
 20
14.2957
 30
0.0000
 11
45.9111
 21
14.2957
 31
0.0000
  0
LINE
  8
21
 10
45.9111
 20
13.8880
 30
0.0000
 11
45.9111
 21
14.7034
 31
0.0000
  0
LINE
  8
21
 10
44.8918
 20
15.1771
 30
0.0000
 11
44.6879
 21
15.3809
 31
0.0000
  0
LINE
  8
21
 10
44.6879
 20
15.3809
 30
0.0000
 11
44.6879
 21
15.7887
 31
0.0000
  0
LINE
  8
21
 10
44.6879
 20
15.7887
 30
0.0000
 11
44.8918
 21
15.9925
 31
0.0000
  0
LINE
  8
21
 10
44.8918
 20
15.9925
 30
0.0000
 11
45.0957
 21
15.9925
 31
0.0000
  0
LINE
  8
21
 10
45.0957
 20
15.9925
 30
0.0000
 11
45.2995
 21
15.7887
 31
0.0000
  0
LINE
  8
21
 10
45.2995
 20
15.7887
 30
0.0000
 11
45.5034
 21
15.9925
 31
0.0000
  0
LINE
  8
21
 10
45.5034
 20
15.9925
 30
0.0000
 11
45.7073
 21
15.9925
 31
0.0000
  0
LINE
  8
21
 10
45.7073
 20
15.9925
 30
0.0000
 11
45.9111
 21
15.7887
 31
0.0000
  0
LINE
  8
21
 10
45.9111
 20
15.7887
 30
0.0000
 11
45.9111
 21
15.3809
 31
0.0000
  0
LINE
  8
21
 10
45.9111
 20
15.3809
 30
0.0000
 11
45.7073
 21
15.1771
 31
0.0000
  0
LINE
  8
21
 10
45.7073
 20
15.1771
 30
0.0000
 11
45.5034
 21
15.1771
 31
0.0000
  0
LINE
  8
21
 10
45.5034
 20
15.1771
 30
0.0000
 11
45.2995
 21
15.3809
 31
0.0000
  0
LINE
  8
21
 10
45.2995
 20
15.3809
 30
0.0000
 11
45.0957
 21
15.1771
 31
0.0000
  0
LINE
  8
21
 10
45.0957
 20
15.1771
 30
0.0000
 11
44.8918
 21
15.1771
 31
0.0000
  0
LINE
  8
21
 10
45.2995
 20
15.3809
 30
0.0000
 11
45.2995
 21
15.7887
 31
0.0000
  0
LINE
  8
21
 10
63.1442
 20
10.9711
 30
0.0000
 11
62.9239
 21
10.7508
 31
0.0000
  0
LINE
  8
21
 10
62.9239
 20
10.7508
 30
0.0000
 11
62.7036
 21
10.7508
 31
0.0000
  0
LINE
  8
21
 10
62.7036
 20
10.7508
 30
0.0000
 11
62.4833
 21
10.9711
 31
0.0000
  0
LINE
  8
21
 10
62.5934
 20
11.6591
 30
0.0000
 11
62.4833
 21
11.5489
 31
0.0000
  0
LINE
  8
21
 10
62.4833
 20
11.5489
 30
0.0000
 11
62.4833
 21
11.3286
 31
0.0000
  0
LINE
  8
21
 10
62.4833
 20
11.3286
 30
0.0000
 11
62.5934
 21
11.2185
 31
0.0000
  0
LINE
  8
21
 10
62.5934
 20
11.2185
 30
0.0000
 11
63.0341
 21
11.2185
 31
0.0000
  0
LINE
  8
21
 10
63.0341
 20
11.2185
 30
0.0000
 11
63.1442
 21
11.3286
 31
0.0000
  0
LINE
  8
21
 10
63.1442
 20
11.3286
 30
0.0000
 11
63.1442
 21
11.5489
 31
0.0000
  0
LINE
  8
21
 10
63.1442
 20
11.5489
 30
0.0000
 11
63.0341
 21
11.6591
 31
0.0000
  0
LINE
  8
21
 10
63.1442
 20
11.9201
 30
0.0000
 11
62.9239
 21
12.1404
 31
0.0000
  0
LINE
  8
21
 10
62.9239
 20
12.1404
 30
0.0000
 11
62.7036
 21
12.1404
 31
0.0000
  0
LINE
  8
21
 10
62.7036
 20
12.1404
 30
0.0000
 11
62.4833
 21
11.9201
 31
0.0000
  0
LINE
  8
21
 10
63.1442
 20
12.8284
 30
0.0000
 11
63.1442
 21
12.3878
 31
0.0000
  0
LINE
  8
21
 10
63.1442
 20
12.3878
 30
0.0000
 11
62.7036
 21
12.8284
 31
0.0000
  0
LINE
  8
21
 10
62.7036
 20
12.8284
 30
0.0000
 11
62.5934
 21
12.8284
 31
0.0000
  0
LINE
  8
21
 10
62.5934
 20
12.8284
 30
0.0000
 11
62.4833
 21
12.7182
 31
0.0000
  0
LINE
  8
21
 10
62.4833
 20
12.7182
 30
0.0000
 11
62.4833
 21
12.4979
 31
0.0000
  0
LINE
  8
21
 10
62.4833
 20
12.4979
 30
0.0000
 11
62.5934
 21
12.3878
 31
0.0000
  0
LINE
  8
21
 10
63.0341
 20
13.0894
 30
0.0000
 11
62.5934
 21
13.0894
 31
0.0000
  0
LINE
  8
21
 10
62.5934
 20
13.0894
 30
0.0000
 11
62.4833
 21
13.1995
 31
0.0000
  0
LINE
  8
21
 10
62.4833
 20
13.1995
 30
0.0000
 11
62.4833
 21
13.4198
 31
0.0000
  0
LINE
  8
21
 10
62.4833
 20
13.4198
 30
0.0000
 11
62.5934
 21
13.5300
 31
0.0000
  0
LINE
  8
21
 10
62.5934
 20
13.5300
 30
0.0000
 11
63.0341
 21
13.5300
 31
0.0000
  0
LINE
  8
21
 10
63.0341
 20
13.5300
 30
0.0000
 11
63.1442
 21
13.4198
 31
0.0000
  0
LINE
  8
21
 10
63.1442
 20
13.4198
 30
0.0000
 11
63.1442
 21
13.1995
 31
0.0000
  0
LINE
  8
21
 10
63.1442
 20
13.1995
 30
0.0000
 11
63.0341
 21
13.0894
 31
0.0000
  0
LINE
  8
21
 10
63.0341
 20
13.0894
 30
0.0000
 11
62.5934
 21
13.5300
 31
0.0000
  0
LINE
  8
21
 10
62.7036
 20
13.7910
 30
0.0000
 11
62.4833
 21
14.0113
 31
0.0000
  0
LINE
  8
21
 10
62.4833
 20
14.0113
 30
0.0000
 11
63.1442
 21
14.0113
 31
0.0000
  0
LINE
  8
21
 10
63.1442
 20
13.7910
 30
0.0000
 11
63.1442
 21
14.2316
 31
0.0000
  0
LINE
  8
21
 10
62.4833
 20
14.9332
 30
0.0000
 11
62.5934
 21
14.7129
 31
0.0000
  0
LINE
  8
21
 10
62.5934
 20
14.7129
 30
0.0000
 11
62.8138
 21
14.4926
 31
0.0000
  0
LINE
  8
21
 10
62.8138
 20
14.4926
 30
0.0000
 11
63.0341
 21
14.4926
 31
0.0000
  0
LINE
  8
21
 10
63.0341
 20
14.4926
 30
0.0000
 11
63.1442
 21
14.6027
 31
0.0000
  0
LINE
  8
21
 10
63.1442
 20
14.6027
 30
0.0000
 11
63.1442
 21
14.8230
 31
0.0000
  0
LINE
  8
21
 10
63.1442
 20
14.8230
 30
0.0000
 11
63.0341
 21
14.9332
 31
0.0000
  0
LINE
  8
21
 10
63.0341
 20
14.9332
 30
0.0000
 11
62.9239
 21
14.9332
 31
0.0000
  0
LINE
  8
21
 10
62.9239
 20
14.9332
 30
0.0000
 11
62.8138
 21
14.8230
 31
0.0000
  0
LINE
  8
21
 10
62.8138
 20
14.8230
 30
0.0000
 11
62.8138
 21
14.4926
 31
0.0000
  0
LINE
  8
21
 10
62.4833
 20
15.8958
 30
0.0000
 11
63.1442
 21
15.8958
 31
0.0000
  0
LINE
  8
21
 10
63.1442
 20
15.8958
 30
0.0000
 11
63.1442
 21
16.3364
 31
0.0000
  0
LINE
  8
21
 10
63.1442
 20
16.9278
 30
0.0000
 11
63.1442
 21
16.7075
 31
0.0000
  0
LINE
  8
21
 10
63.1442
 20
16.7075
 30
0.0000
 11
63.0341
 21
16.5974
 31
0.0000
  0
LINE
  8
21
 10
63.0341
 20
16.5974
 30
0.0000
 11
62.8138
 21
16.5974
 31
0.0000
  0
LINE
  8
21
 10
62.8138
 20
16.5974
 30
0.0000
 11
62.7036
 21
16.7075
 31
0.0000
  0
LINE
  8
21
 10
62.7036
 20
16.7075
 30
0.0000
 11
62.7036
 21
16.9278
 31
0.0000
  0
LINE
  8
21
 10
62.7036
 20
16.9278
 30
0.0000
 11
62.8138
 21
17.0380
 31
0.0000
  0
LINE
  8
21
 10
62.8138
 20
17.0380
 30
0.0000
 11
62.9239
 21
17.0380
 31
0.0000
  0
LINE
  8
21
 10
62.9239
 20
17.0380
 30
0.0000
 11
62.9239
 21
16.5974
 31
0.0000
  0
LINE
  8
21
 10
63.1442
 20
17.4091
 30
0.0000
 11
63.1442
 21
17.6294
 31
0.0000
  0
LINE
  8
21
 10
63.1442
 20
17.6294
 30
0.0000
 11
63.0341
 21
17.7396
 31
0.0000
  0
LINE
  8
21
 10
63.0341
 20
17.7396
 30
0.0000
 11
62.8138
 21
17.7396
 31
0.0000
  0
LINE
  8
21
 10
62.8138
 20
17.7396
 30
0.0000
 11
62.7036
 21
17.6294
 31
0.0000
  0
LINE
  8
21
 10
62.7036
 20
17.6294
 30
0.0000
 11
62.7036
 21
17.4091
 31
0.0000
  0
LINE
  8
21
 10
62.7036
 20
17.4091
 30
0.0000
 11
62.8138
 21
17.2990
 31
0.0000
  0
LINE
  8
21
 10
62.8138
 20
17.2990
 30
0.0000
 11
63.0341
 21
17.2990
 31
0.0000
  0
LINE
  8
21
 10
63.0341
 20
17.2990
 30
0.0000
 11
63.1442
 21
17.4091
 31
0.0000
  0
LINE
  8
21
 10
63.1442
 20
18.7022
 30
0.0000
 11
62.4833
 21
18.7022
 31
0.0000
  0
LINE
  8
21
 10
62.4833
 20
18.7022
 30
0.0000
 11
62.4833
 21
19.0326
 31
0.0000
  0
LINE
  8
21
 10
62.4833
 20
19.0326
 30
0.0000
 11
62.5934
 21
19.1428
 31
0.0000
  0
LINE
  8
21
 10
62.5934
 20
19.1428
 30
0.0000
 11
62.7036
 21
19.1428
 31
0.0000
  0
LINE
  8
21
 10
62.7036
 20
19.1428
 30
0.0000
 11
62.8138
 21
19.0326
 31
0.0000
  0
LINE
  8
21
 10
62.8138
 20
19.0326
 30
0.0000
 11
62.9239
 21
19.1428
 31
0.0000
  0
LINE
  8
21
 10
62.9239
 20
19.1428
 30
0.0000
 11
63.0341
 21
19.1428
 31
0.0000
  0
LINE
  8
21
 10
63.0341
 20
19.1428
 30
0.0000
 11
63.1442
 21
19.0326
 31
0.0000
  0
LINE
  8
21
 10
63.1442
 20
19.0326
 30
0.0000
 11
63.1442
 21
18.7022
 31
0.0000
  0
LINE
  8
21
 10
62.8138
 20
18.7022
 30
0.0000
 11
62.8138
 21
19.0326
 31
0.0000
  0
LINE
  8
21
 10
63.1442
 20
19.5139
 30
0.0000
 11
63.1442
 21
19.7342
 31
0.0000
  0
LINE
  8
21
 10
63.1442
 20
19.7342
 30
0.0000
 11
63.0341
 21
19.8444
 31
0.0000
  0
LINE
  8
21
 10
63.0341
 20
19.8444
 30
0.0000
 11
62.8138
 21
19.8444
 31
0.0000
  0
LINE
  8
21
 10
62.8138
 20
19.8444
 30
0.0000
 11
62.7036
 21
19.7342
 31
0.0000
  0
LINE
  8
21
 10
62.7036
 20
19.7342
 30
0.0000
 11
62.7036
 21
19.5139
 31
0.0000
  0
LINE
  8
21
 10
62.7036
 20
19.5139
 30
0.0000
 11
62.8138
 21
19.4038
 31
0.0000
  0
LINE
  8
21
 10
62.8138
 20
19.4038
 30
0.0000
 11
63.0341
 21
19.4038
 31
0.0000
  0
LINE
  8
21
 10
63.0341
 20
19.4038
 30
0.0000
 11
63.1442
 21
19.5139
 31
0.0000
  0
LINE
  8
21
 10
62.4833
 20
20.5460
 30
0.0000
 11
63.1442
 21
20.5460
 31
0.0000
  0
LINE
  8
21
 10
63.1442
 20
20.5460
 30
0.0000
 11
63.1442
 21
20.2155
 31
0.0000
  0
LINE
  8
21
 10
63.1442
 20
20.2155
 30
0.0000
 11
63.0341
 21
20.1054
 31
0.0000
  0
LINE
  8
21
 10
63.0341
 20
20.1054
 30
0.0000
 11
62.8138
 21
20.1054
 31
0.0000
  0
LINE
  8
21
 10
62.8138
 20
20.1054
 30
0.0000
 11
62.7036
 21
20.2155
 31
0.0000
  0
LINE
  8
21
 10
62.7036
 20
20.2155
 30
0.0000
 11
62.7036
 21
20.5460
 31
0.0000
  0
LINE
  8
21
 10
63.1442
 20
20.8070
 30
0.0000
 11
62.7036
 21
20.8070
 31
0.0000
  0
LINE
  8
21
 10
62.7036
 20
20.8070
 30
0.0000
 11
62.7036
 21
21.1374
 31
0.0000
  0
LINE
  8
21
 10
62.7036
 20
21.1374
 30
0.0000
 11
62.8138
 21
21.2476
 31
0.0000
  0
LINE
  8
21
 10
62.8138
 20
21.2476
 30
0.0000
 11
63.1442
 21
21.2476
 31
0.0000
  0
LINE
  8
21
 10
62.7036
 20
21.6187
 30
0.0000
 11
62.7036
 21
21.8390
 31
0.0000
  0
LINE
  8
21
 10
62.7036
 20
21.8390
 30
0.0000
 11
62.8138
 21
21.9492
 31
0.0000
  0
LINE
  8
21
 10
62.8138
 20
21.9492
 30
0.0000
 11
63.1442
 21
21.9492
 31
0.0000
  0
LINE
  8
21
 10
63.1442
 20
21.9492
 30
0.0000
 11
63.1442
 21
21.6187
 31
0.0000
  0
LINE
  8
21
 10
63.1442
 20
21.6187
 30
0.0000
 11
63.0341
 21
21.5086
 31
0.0000
  0
LINE
  8
21
 10
63.0341
 20
21.5086
 30
0.0000
 11
62.9239
 21
21.6187
 31
0.0000
  0
LINE
  8
21
 10
62.9239
 20
21.6187
 30
0.0000
 11
62.9239
 21
21.9492
 31
0.0000
  0
LINE
  8
21
 10
63.1442
 20
22.2102
 30
0.0000
 11
62.7036
 21
22.2102
 31
0.0000
  0
LINE
  8
21
 10
62.9239
 20
22.2102
 30
0.0000
 11
62.7036
 21
22.4305
 31
0.0000
  0
LINE
  8
21
 10
62.7036
 20
22.4305
 30
0.0000
 11
62.7036
 21
22.5406
 31
0.0000
  0
LINE
  8
21
 10
46.5659
 20
30.7916
 30
0.0000
 11
46.4203
 21
30.9372
 31
0.0000
  0
LINE
  8
21
 10
46.4203
 20
30.9372
 30
0.0000
 11
46.1291
 21
30.9372
 31
0.0000
  0
LINE
  8
21
 10
46.1291
 20
30.9372
 30
0.0000
 11
45.9835
 21
30.7916
 31
0.0000
  0
LINE
  8
21
 10
45.9835
 20
30.7916
 30
0.0000
 11
45.9835
 21
30.2091
 31
0.0000
  0
LINE
  8
21
 10
45.9835
 20
30.2091
 30
0.0000
 11
46.1291
 21
30.0635
 31
0.0000
  0
LINE
  8
21
 10
46.1291
 20
30.0635
 30
0.0000
 11
46.4203
 21
30.0635
 31
0.0000
  0
LINE
  8
21
 10
46.4203
 20
30.0635
 30
0.0000
 11
46.5659
 21
30.2091
 31
0.0000
  0
LINE
  8
21
 10
47.3410
 20
30.9372
 30
0.0000
 11
47.0498
 21
30.9372
 31
0.0000
  0
LINE
  8
21
 10
47.0498
 20
30.9372
 30
0.0000
 11
46.9042
 21
30.7916
 31
0.0000
  0
LINE
  8
21
 10
46.9042
 20
30.7916
 30
0.0000
 11
46.9042
 21
30.2091
 31
0.0000
  0
LINE
  8
21
 10
46.9042
 20
30.2091
 30
0.0000
 11
47.0498
 21
30.0635
 31
0.0000
  0
LINE
  8
21
 10
47.0498
 20
30.0635
 30
0.0000
 11
47.3410
 21
30.0635
 31
0.0000
  0
LINE
  8
21
 10
47.3410
 20
30.0635
 30
0.0000
 11
47.4866
 21
30.2091
 31
0.0000
  0
LINE
  8
21
 10
47.4866
 20
30.2091
 30
0.0000
 11
47.4866
 21
30.7916
 31
0.0000
  0
LINE
  8
21
 10
47.4866
 20
30.7916
 30
0.0000
 11
47.3410
 21
30.9372
 31
0.0000
  0
LINE
  8
21
 10
47.8249
 20
30.9372
 30
0.0000
 11
47.8249
 21
30.0635
 31
0.0000
  0
LINE
  8
21
 10
47.8249
 20
30.0635
 30
0.0000
 11
48.4073
 21
30.0635
 31
0.0000
  0
LINE
  8
21
 10
48.7456
 20
30.9372
 30
0.0000
 11
48.7456
 21
30.2091
 31
0.0000
  0
LINE
  8
21
 10
48.7456
 20
30.2091
 30
0.0000
 11
48.8912
 21
30.0635
 31
0.0000
  0
LINE
  8
21
 10
48.8912
 20
30.0635
 30
0.0000
 11
49.1824
 21
30.0635
 31
0.0000
  0
LINE
  8
21
 10
49.1824
 20
30.0635
 30
0.0000
 11
49.3280
 21
30.2091
 31
0.0000
  0
LINE
  8
21
 10
49.3280
 20
30.2091
 30
0.0000
 11
49.3280
 21
30.9372
 31
0.0000
  0
LINE
  8
21
 10
49.6663
 20
30.0635
 30
0.0000
 11
49.6663
 21
30.9372
 31
0.0000
  0
LINE
  8
21
 10
49.6663
 20
30.9372
 30
0.0000
 11
49.9575
 21
30.6459
 31
0.0000
  0
LINE
  8
21
 10
49.9575
 20
30.6459
 30
0.0000
 11
50.2487
 21
30.9372
 31
0.0000
  0
LINE
  8
21
 10
50.2487
 20
30.9372
 30
0.0000
 11
50.2487
 21
30.0635
 31
0.0000
  0
LINE
  8
21
 10
50.5870
 20
30.0635
 30
0.0000
 11
50.5870
 21
30.9372
 31
0.0000
  0
LINE
  8
21
 10
50.5870
 20
30.9372
 30
0.0000
 11
51.1694
 21
30.0635
 31
0.0000
  0
LINE
  8
21
 10
51.1694
 20
30.0635
 30
0.0000
 11
51.1694
 21
30.9372
 31
0.0000
  0
LINE
  8
21
 10
52.0901
 20
30.7916
 30
0.0000
 11
51.9445
 21
30.9372
 31
0.0000
  0
LINE
  8
21
 10
51.9445
 20
30.9372
 30
0.0000
 11
51.6533
 21
30.9372
 31
0.0000
  0
LINE
  8
21
 10
51.6533
 20
30.9372
 30
0.0000
 11
51.5077
 21
30.7916
 31
0.0000
  0
LINE
  8
21
 10
51.5077
 20
30.7916
 30
0.0000
 11
51.5077
 21
30.6459
 31
0.0000
  0
LINE
  8
21
 10
51.5077
 20
30.6459
 30
0.0000
 11
51.6533
 21
30.5003
 31
0.0000
  0
LINE
  8
21
 10
51.6533
 20
30.5003
 30
0.0000
 11
51.9445
 21
30.5003
 31
0.0000
  0
LINE
  8
21
 10
51.9445
 20
30.5003
 30
0.0000
 11
52.0901
 21
30.3547
 31
0.0000
  0
LINE
  8
21
 10
52.0901
 20
30.3547
 30
0.0000
 11
52.0901
 21
30.2091
 31
0.0000
  0
LINE
  8
21
 10
52.0901
 20
30.2091
 30
0.0000
 11
51.9445
 21
30.0635
 31
0.0000
  0
LINE
  8
21
 10
51.9445
 20
30.0635
 30
0.0000
 11
51.6533
 21
30.0635
 31
0.0000
  0
LINE
  8
21
 10
51.6533
 20
30.0635
 30
0.0000
 11
51.5077
 21
30.2091
 31
0.0000
  0
LINE
  8
21
 10
42.5335
 20
30.6459
 30
0.0000
 11
42.8247
 21
30.9372
 31
0.0000
  0
LINE
  8
21
 10
42.8247
 20
30.9372
 30
0.0000
 11
42.8247
 21
30.0635
 31
0.0000
  0
LINE
  8
21
 10
42.5335
 20
30.0635
 30
0.0000
 11
43.1159
 21
30.0635
 31
0.0000
  0
LINE
  8
21
 10
55.7159
 20
30.9372
 30
0.0000
 11
55.4247
 21
30.7916
 31
0.0000
  0
LINE
  8
21
 10
55.4247
 20
30.7916
 30
0.0000
 11
55.1335
 21
30.5003
 31
0.0000
  0
LINE
  8
21
 10
55.1335
 20
30.5003
 30
0.0000
 11
55.1335
 21
30.2091
 31
0.0000
  0
LINE
  8
21
 10
55.1335
 20
30.2091
 30
0.0000
 11
55.2791
 21
30.0635
 31
0.0000
  0
LINE
  8
21
 10
55.2791
 20
30.0635
 30
0.0000
 11
55.5703
 21
30.0635
 31
0.0000
  0
LINE
  8
21
 10
55.5703
 20
30.0635
 30
0.0000
 11
55.7159
 21
30.2091
 31
0.0000
  0
LINE
  8
21
 10
55.7159
 20
30.2091
 30
0.0000
 11
55.7159
 21
30.3547
 31
0.0000
  0
LINE
  8
21
 10
55.7159
 20
30.3547
 30
0.0000
 11
55.5703
 21
30.5003
 31
0.0000
  0
LINE
  8
21
 10
55.5703
 20
30.5003
 30
0.0000
 11
55.1335
 21
30.5003
 31
0.0000
  0
LINE
  8
21
 10
47.4835
 20
23.1635
 30
0.0000
 11
47.4835
 21
24.0372
 31
0.0000
  0
LINE
  8
21
 10
47.4835
 20
24.0372
 30
0.0000
 11
47.9203
 21
24.0372
 31
0.0000
  0
LINE
  8
21
 10
47.9203
 20
24.0372
 30
0.0000
 11
48.0659
 21
23.8916
 31
0.0000
  0
LINE
  8
21
 10
48.0659
 20
23.8916
 30
0.0000
 11
48.0659
 21
23.6003
 31
0.0000
  0
LINE
  8
21
 10
48.0659
 20
23.6003
 30
0.0000
 11
47.9203
 21
23.4547
 31
0.0000
  0
LINE
  8
21
 10
47.9203
 20
23.4547
 30
0.0000
 11
47.4835
 21
23.4547
 31
0.0000
  0
LINE
  8
21
 10
47.7747
 20
23.4547
 30
0.0000
 11
48.0659
 21
23.1635
 31
0.0000
  0
LINE
  8
21
 10
48.8410
 20
24.0372
 30
0.0000
 11
48.5498
 21
24.0372
 31
0.0000
  0
LINE
  8
21
 10
48.5498
 20
24.0372
 30
0.0000
 11
48.4042
 21
23.8916
 31
0.0000
  0
LINE
  8
21
 10
48.4042
 20
23.8916
 30
0.0000
 11
48.4042
 21
23.3091
 31
0.0000
  0
LINE
  8
21
 10
48.4042
 20
23.3091
 30
0.0000
 11
48.5498
 21
23.1635
 31
0.0000
  0
LINE
  8
21
 10
48.5498
 20
23.1635
 30
0.0000
 11
48.8410
 21
23.1635
 31
0.0000
  0
LINE
  8
21
 10
48.8410
 20
23.1635
 30
0.0000
 11
48.9866
 21
23.3091
 31
0.0000
  0
LINE
  8
21
 10
48.9866
 20
23.3091
 30
0.0000
 11
48.9866
 21
23.8916
 31
0.0000
  0
LINE
  8
21
 10
48.9866
 20
23.8916
 30
0.0000
 11
48.8410
 21
24.0372
 31
0.0000
  0
LINE
  8
21
 10
49.3249
 20
24.0372
 30
0.0000
 11
49.3249
 21
23.1635
 31
0.0000
  0
LINE
  8
21
 10
49.3249
 20
23.1635
 30
0.0000
 11
49.6161
 21
23.4547
 31
0.0000
  0
LINE
  8
21
 10
49.6161
 20
23.4547
 30
0.0000
 11
49.9073
 21
23.1635
 31
0.0000
  0
LINE
  8
21
 10
49.9073
 20
23.1635
 30
0.0000
 11
49.9073
 21
24.0372
 31
0.0000
  0
LINE
  8
21
 10
50.8280
 20
23.8916
 30
0.0000
 11
50.6824
 21
24.0372
 31
0.0000
  0
LINE
  8
21
 10
50.6824
 20
24.0372
 30
0.0000
 11
50.3912
 21
24.0372
 31
0.0000
  0
LINE
  8
21
 10
50.3912
 20
24.0372
 30
0.0000
 11
50.2456
 21
23.8916
 31
0.0000
  0
LINE
  8
21
 10
50.2456
 20
23.8916
 30
0.0000
 11
50.2456
 21
23.7459
 31
0.0000
  0
LINE
  8
21
 10
50.2456
 20
23.7459
 30
0.0000
 11
50.3912
 21
23.6003
 31
0.0000
  0
LINE
  8
21
 10
50.3912
 20
23.6003
 30
0.0000
 11
50.6824
 21
23.6003
 31
0.0000
  0
LINE
  8
21
 10
50.6824
 20
23.6003
 30
0.0000
 11
50.8280
 21
23.4547
 31
0.0000
  0
LINE
  8
21
 10
50.8280
 20
23.4547
 30
0.0000
 11
50.8280
 21
23.3091
 31
0.0000
  0
LINE
  8
21
 10
50.8280
 20
23.3091
 30
0.0000
 11
50.6824
 21
23.1635
 31
0.0000
  0
LINE
  8
21
 10
50.6824
 20
23.1635
 30
0.0000
 11
50.3912
 21
23.1635
 31
0.0000
  0
LINE
  8
21
 10
50.3912
 20
23.1635
 30
0.0000
 11
50.2456
 21
23.3091
 31
0.0000
  0
LINE
  8
21
 10
42.5335
 20
23.7459
 30
0.0000
 11
42.8247
 21
24.0372
 31
0.0000
  0
LINE
  8
21
 10
42.8247
 20
24.0372
 30
0.0000
 11
42.8247
 21
23.1635
 31
0.0000
  0
LINE
  8
21
 10
42.5335
 20
23.1635
 30
0.0000
 11
43.1159
 21
23.1635
 31
0.0000
  0
LINE
  8
21
 10
55.7159
 20
24.0372
 30
0.0000
 11
55.4247
 21
23.8916
 31
0.0000
  0
LINE
  8
21
 10
55.4247
 20
23.8916
 30
0.0000
 11
55.1335
 21
23.6003
 31
0.0000
  0
LINE
  8
21
 10
55.1335
 20
23.6003
 30
0.0000
 11
55.1335
 21
23.3091
 31
0.0000
  0
LINE
  8
21
 10
55.1335
 20
23.3091
 30
0.0000
 11
55.2791
 21
23.1635
 31
0.0000
  0
LINE
  8
21
 10
55.2791
 20
23.1635
 30
0.0000
 11
55.5703
 21
23.1635
 31
0.0000
  0
LINE
  8
21
 10
55.5703
 20
23.1635
 30
0.0000
 11
55.7159
 21
23.3091
 31
0.0000
  0
LINE
  8
21
 10
55.7159
 20
23.3091
 30
0.0000
 11
55.7159
 21
23.4547
 31
0.0000
  0
LINE
  8
21
 10
55.7159
 20
23.4547
 30
0.0000
 11
55.5703
 21
23.6003
 31
0.0000
  0
LINE
  8
21
 10
55.5703
 20
23.6003
 30
0.0000
 11
55.1335
 21
23.6003
 31
0.0000
  0
LINE
  8
21
 10
0.9889
 20
26.3189
 30
0.0000
 11
0.9889
 21
27.6422
 31
0.0000
  0
LINE
  8
21
 10
0.9889
 20
27.6422
 30
0.0000
 11
1.6505
 21
27.6422
 31
0.0000
  0
LINE
  8
21
 10
1.6505
 20
27.6422
 30
0.0000
 11
1.8711
 21
27.4216
 31
0.0000
  0
LINE
  8
21
 10
1.8711
 20
27.4216
 30
0.0000
 11
1.8711
 21
27.2011
 31
0.0000
  0
LINE
  8
21
 10
1.8711
 20
27.2011
 30
0.0000
 11
1.6505
 21
26.9805
 31
0.0000
  0
LINE
  8
21
 10
1.6505
 20
26.9805
 30
0.0000
 11
1.8711
 21
26.7600
 31
0.0000
  0
LINE
  8
21
 10
1.8711
 20
26.7600
 30
0.0000
 11
1.8711
 21
26.5394
 31
0.0000
  0
LINE
  8
21
 10
1.8711
 20
26.5394
 30
0.0000
 11
1.6505
 21
26.3189
 31
0.0000
  0
LINE
  8
21
 10
1.6505
 20
26.3189
 30
0.0000
 11
0.9889
 21
26.3189
 31
0.0000
  0
LINE
  8
21
 10
0.9889
 20
26.9805
 30
0.0000
 11
1.6505
 21
26.9805
 31
0.0000
  0
LINE
  8
21
 10
2.3700
 20
27.6422
 30
0.0000
 11
2.3700
 21
26.5394
 31
0.0000
  0
LINE
  8
21
 10
2.3700
 20
26.5394
 30
0.0000
 11
2.5905
 21
26.3189
 31
0.0000
  0
LINE
  8
21
 10
2.5905
 20
26.3189
 30
0.0000
 11
3.0316
 21
26.3189
 31
0.0000
  0
LINE
  8
21
 10
3.0316
 20
26.3189
 30
0.0000
 11
3.2522
 21
26.5394
 31
0.0000
  0
LINE
  8
21
 10
3.2522
 20
26.5394
 30
0.0000
 11
3.2522
 21
27.6422
 31
0.0000
  0
LINE
  8
21
 10
3.7511
 20
26.5394
 30
0.0000
 11
3.7511
 21
27.4216
 31
0.0000
  0
LINE
  8
21
 10
3.7511
 20
27.4216
 30
0.0000
 11
3.9716
 21
27.6422
 31
0.0000
  0
LINE
  8
21
 10
3.9716
 20
27.6422
 30
0.0000
 11
4.4127
 21
27.6422
 31
0.0000
  0
LINE
  8
21
 10
4.4127
 20
27.6422
 30
0.0000
 11
4.6333
 21
27.4216
 31
0.0000
  0
LINE
  8
21
 10
4.6333
 20
27.4216
 30
0.0000
 11
4.6333
 21
26.5394
 31
0.0000
  0
LINE
  8
21
 10
4.6333
 20
26.5394
 30
0.0000
 11
4.4127
 21
26.3189
 31
0.0000
  0
LINE
  8
21
 10
4.4127
 20
26.3189
 30
0.0000
 11
3.9716
 21
26.3189
 31
0.0000
  0
LINE
  8
21
 10
3.9716
 20
26.3189
 30
0.0000
 11
3.7511
 21
26.5394
 31
0.0000
  0
LINE
  8
21
 10
3.7511
 20
26.5394
 30
0.0000
 11
4.6333
 21
27.4216
 31
0.0000
  0
LINE
  8
21
 10
5.1322
 20
27.4216
 30
0.0000
 11
5.3527
 21
27.6422
 31
0.0000
  0
LINE
  8
21
 10
5.3527
 20
27.6422
 30
0.0000
 11
5.7938
 21
27.6422
 31
0.0000
  0
LINE
  8
21
 10
5.7938
 20
27.6422
 30
0.0000
 11
6.0144
 21
27.4216
 31
0.0000
  0
LINE
  8
21
 10
6.0144
 20
27.4216
 30
0.0000
 11
6.0144
 21
27.2011
 31
0.0000
  0
LINE
  8
21
 10
6.0144
 20
27.2011
 30
0.0000
 11
5.7938
 21
26.9805
 31
0.0000
  0
LINE
  8
21
 10
5.7938
 20
26.9805
 30
0.0000
 11
6.0144
 21
26.7600
 31
0.0000
  0
LINE
  8
21
 10
6.0144
 20
26.7600
 30
0.0000
 11
6.0144
 21
26.5394
 31
0.0000
  0
LINE
  8
21
 10
6.0144
 20
26.5394
 30
0.0000
 11
5.7938
 21
26.3189
 31
0.0000
  0
LINE
  8
21
 10
5.7938
 20
26.3189
 30
0.0000
 11
5.3527
 21
26.3189
 31
0.0000
  0
LINE
  8
21
 10
5.3527
 20
26.3189
 30
0.0000
 11
5.1322
 21
26.5394
 31
0.0000
  0
LINE
  8
21
 10
5.1322
 20
26.5394
 30
0.0000
 11
5.1322
 21
26.7600
 31
0.0000
  0
LINE
  8
21
 10
5.1322
 20
26.7600
 30
0.0000
 11
5.3527
 21
26.9805
 31
0.0000
  0
LINE
  8
21
 10
5.3527
 20
26.9805
 30
0.0000
 11
5.1322
 21
27.2011
 31
0.0000
  0
LINE
  8
21
 10
5.1322
 20
27.2011
 30
0.0000
 11
5.1322
 21
27.4216
 31
0.0000
  0
LINE
  8
21
 10
5.3527
 20
26.9805
 30
0.0000
 11
5.7938
 21
26.9805
 31
0.0000
  0
LINE
  8
21
 10
6.5133
 20
27.4216
 30
0.0000
 11
6.7338
 21
27.6422
 31
0.0000
  0
LINE
  8
21
 10
6.7338
 20
27.6422
 30
0.0000
 11
7.1749
 21
27.6422
 31
0.0000
  0
LINE
  8
21
 10
7.1749
 20
27.6422
 30
0.0000
 11
7.3955
 21
27.4216
 31
0.0000
  0
LINE
  8
21
 10
7.3955
 20
27.4216
 30
0.0000
 11
7.3955
 21
27.2011
 31
0.0000
  0
LINE
  8
21
 10
7.3955
 20
27.2011
 30
0.0000
 11
7.1749
 21
26.9805
 31
0.0000
  0
LINE
  8
21
 10
7.1749
 20
26.9805
 30
0.0000
 11
6.9544
 21
26.9805
 31
0.0000
  0
LINE
  8
21
 10
7.1749
 20
26.9805
 30
0.0000
 11
7.3955
 21
26.7600
 31
0.0000
  0
LINE
  8
21
 10
7.3955
 20
26.7600
 30
0.0000
 11
7.3955
 21
26.5394
 31
0.0000
  0
LINE
  8
21
 10
7.3955
 20
26.5394
 30
0.0000
 11
7.1749
 21
26.3189
 31
0.0000
  0
LINE
  8
21
 10
7.1749
 20
26.3189
 30
0.0000
 11
6.7338
 21
26.3189
 31
0.0000
  0
LINE
  8
21
 10
6.7338
 20
26.3189
 30
0.0000
 11
6.5133
 21
26.5394
 31
0.0000
  0
LINE
  8
21
 10
8.7766
 20
27.6422
 30
0.0000
 11
8.3355
 21
27.4216
 31
0.0000
  0
LINE
  8
21
 10
8.3355
 20
27.4216
 30
0.0000
 11
7.8944
 21
26.9805
 31
0.0000
  0
LINE
  8
21
 10
7.8944
 20
26.9805
 30
0.0000
 11
7.8944
 21
26.5394
 31
0.0000
  0
LINE
  8
21
 10
7.8944
 20
26.5394
 30
0.0000
 11
8.1149
 21
26.3189
 31
0.0000
  0
LINE
  8
21
 10
8.1149
 20
26.3189
 30
0.0000
 11
8.5560
 21
26.3189
 31
0.0000
  0
LINE
  8
21
 10
8.5560
 20
26.3189
 30
0.0000
 11
8.7766
 21
26.5394
 31
0.0000
  0
LINE
  8
21
 10
8.7766
 20
26.5394
 30
0.0000
 11
8.7766
 21
26.7600
 31
0.0000
  0
LINE
  8
21
 10
8.7766
 20
26.7600
 30
0.0000
 11
8.5560
 21
26.9805
 31
0.0000
  0
LINE
  8
21
 10
8.5560
 20
26.9805
 30
0.0000
 11
7.8944
 21
26.9805
 31
0.0000
  0
LINE
  8
21
 10
9.2755
 20
26.3189
 30
0.0000
 11
9.2755
 21
27.2011
 31
0.0000
  0
LINE
  8
21
 10
9.2755
 20
27.2011
 30
0.0000
 11
9.7166
 21
27.6422
 31
0.0000
  0
LINE
  8
21
 10
9.7166
 20
27.6422
 30
0.0000
 11
10.1577
 21
27.2011
 31
0.0000
  0
LINE
  8
21
 10
10.1577
 20
27.2011
 30
0.0000
 11
10.1577
 21
26.3189
 31
0.0000
  0
LINE
  8
21
 10
9.2755
 20
26.9805
 30
0.0000
 11
10.1577
 21
26.9805
 31
0.0000
  0
LINE
  8
21
 10
0.9889
 20
23.1889
 30
0.0000
 11
0.9889
 21
24.5122
 31
0.0000
  0
LINE
  8
21
 10
0.9889
 20
24.5122
 30
0.0000
 11
1.4300
 21
24.0711
 31
0.0000
  0
LINE
  8
21
 10
1.4300
 20
24.0711
 30
0.0000
 11
1.8711
 21
24.5122
 31
0.0000
  0
LINE
  8
21
 10
1.8711
 20
24.5122
 30
0.0000
 11
1.8711
 21
23.1889
 31
0.0000
  0
LINE
  8
21
 10
2.3700
 20
23.1889
 30
0.0000
 11
2.3700
 21
24.0711
 31
0.0000
  0
LINE
  8
21
 10
2.3700
 20
24.0711
 30
0.0000
 11
2.8111
 21
24.5122
 31
0.0000
  0
LINE
  8
21
 10
2.8111
 20
24.5122
 30
0.0000
 11
3.2522
 21
24.0711
 31
0.0000
  0
LINE
  8
21
 10
3.2522
 20
24.0711
 30
0.0000
 11
3.2522
 21
23.1889
 31
0.0000
  0
LINE
  8
21
 10
2.3700
 20
23.8505
 30
0.0000
 11
3.2522
 21
23.8505
 31
0.0000
  0
LINE
  8
21
 10
4.1922
 20
23.1889
 30
0.0000
 11
4.1922
 21
24.5122
 31
0.0000
  0
LINE
  8
21
 10
3.7511
 20
24.5122
 30
0.0000
 11
4.6333
 21
24.5122
 31
0.0000
  0
LINE
  8
21
 10
5.1322
 20
23.1889
 30
0.0000
 11
5.1322
 21
24.5122
 31
0.0000
  0
LINE
  8
21
 10
5.1322
 20
24.5122
 30
0.0000
 11
5.7938
 21
24.5122
 31
0.0000
  0
LINE
  8
21
 10
5.7938
 20
24.5122
 30
0.0000
 11
6.0144
 21
24.2916
 31
0.0000
  0
LINE
  8
21
 10
6.0144
 20
24.2916
 30
0.0000
 11
6.0144
 21
23.8505
 31
0.0000
  0
LINE
  8
21
 10
6.0144
 20
23.8505
 30
0.0000
 11
5.7938
 21
23.6300
 31
0.0000
  0
LINE
  8
21
 10
5.7938
 20
23.6300
 30
0.0000
 11
5.1322
 21
23.6300
 31
0.0000
  0
LINE
  8
21
 10
5.5733
 20
23.6300
 30
0.0000
 11
6.0144
 21
23.1889
 31
0.0000
  0
LINE
  8
21
 10
6.5133
 20
23.1889
 30
0.0000
 11
6.9544
 21
23.1889
 31
0.0000
  0
LINE
  8
21
 10
6.7338
 20
23.1889
 30
0.0000
 11
6.7338
 21
24.5122
 31
0.0000
  0
LINE
  8
21
 10
6.5133
 20
24.5122
 30
0.0000
 11
6.9544
 21
24.5122
 31
0.0000
  0
LINE
  8
21
 10
7.4340
 20
24.5122
 30
0.0000
 11
8.3162
 21
23.1889
 31
0.0000
  0
LINE
  8
21
 10
8.3162
 20
24.5122
 30
0.0000
 11
7.4340
 21
23.1889
 31
0.0000
  0
LINE
  8
21
 10
10.1962
 20
23.1889
 30
0.0000
 11
10.1962
 21
24.5122
 31
0.0000
  0
LINE
  8
21
 10
10.1962
 20
24.5122
 30
0.0000
 11
10.8578
 21
24.5122
 31
0.0000
  0
LINE
  8
21
 10
10.8578
 20
24.5122
 30
0.0000
 11
11.0784
 21
24.2916
 31
0.0000
  0
LINE
  8
21
 10
11.0784
 20
24.2916
 30
0.0000
 11
11.0784
 21
24.0711
 31
0.0000
  0
LINE
  8
21
 10
11.0784
 20
24.0711
 30
0.0000
 11
10.8578
 21
23.8505
 31
0.0000
  0
LINE
  8
21
 10
10.8578
 20
23.8505
 30
0.0000
 11
11.0784
 21
23.6300
 31
0.0000
  0
LINE
  8
21
 10
11.0784
 20
23.6300
 30
0.0000
 11
11.0784
 21
23.4094
 31
0.0000
  0
LINE
  8
21
 10
11.0784
 20
23.4094
 30
0.0000
 11
10.8578
 21
23.1889
 31
0.0000
  0
LINE
  8
21
 10
10.8578
 20
23.1889
 30
0.0000
 11
10.1962
 21
23.1889
 31
0.0000
  0
LINE
  8
21
 10
10.1962
 20
23.8505
 30
0.0000
 11
10.8578
 21
23.8505
 31
0.0000
  0
LINE
  8
21
 10
12.2389
 20
24.5122
 30
0.0000
 11
11.7978
 21
24.5122
 31
0.0000
  0
LINE
  8
21
 10
11.7978
 20
24.5122
 30
0.0000
 11
11.5773
 21
24.2916
 31
0.0000
  0
LINE
  8
21
 10
11.5773
 20
24.2916
 30
0.0000
 11
11.5773
 21
23.4094
 31
0.0000
  0
LINE
  8
21
 10
11.5773
 20
23.4094
 30
0.0000
 11
11.7978
 21
23.1889
 31
0.0000
  0
LINE
  8
21
 10
11.7978
 20
23.1889
 30
0.0000
 11
12.2389
 21
23.1889
 31
0.0000
  0
LINE
  8
21
 10
12.2389
 20
23.1889
 30
0.0000
 11
12.4595
 21
23.4094
 31
0.0000
  0
LINE
  8
21
 10
12.4595
 20
23.4094
 30
0.0000
 11
12.4595
 21
24.2916
 31
0.0000
  0
LINE
  8
21
 10
12.4595
 20
24.2916
 30
0.0000
 11
12.2389
 21
24.5122
 31
0.0000
  0
LINE
  8
21
 10
12.9584
 20
23.1889
 30
0.0000
 11
12.9584
 21
24.0711
 31
0.0000
  0
LINE
  8
21
 10
12.9584
 20
24.0711
 30
0.0000
 11
13.3995
 21
24.5122
 31
0.0000
  0
LINE
  8
21
 10
13.3995
 20
24.5122
 30
0.0000
 11
13.8406
 21
24.0711
 31
0.0000
  0
LINE
  8
21
 10
13.8406
 20
24.0711
 30
0.0000
 11
13.8406
 21
23.1889
 31
0.0000
  0
LINE
  8
21
 10
12.9584
 20
23.8505
 30
0.0000
 11
13.8406
 21
23.8505
 31
0.0000
  0
LINE
  8
21
 10
14.3395
 20
23.1889
 30
0.0000
 11
14.3395
 21
24.5122
 31
0.0000
  0
LINE
  8
21
 10
14.3395
 20
24.5122
 30
0.0000
 11
15.0011
 21
24.5122
 31
0.0000
  0
LINE
  8
21
 10
15.0011
 20
24.5122
 30
0.0000
 11
15.2217
 21
24.2916
 31
0.0000
  0
LINE
  8
21
 10
15.2217
 20
24.2916
 30
0.0000
 11
15.2217
 21
23.8505
 31
0.0000
  0
LINE
  8
21
 10
15.2217
 20
23.8505
 30
0.0000
 11
15.0011
 21
23.6300
 31
0.0000
  0
LINE
  8
21
 10
15.0011
 20
23.6300
 30
0.0000
 11
14.3395
 21
23.6300
 31
0.0000
  0
LINE
  8
21
 10
14.7806
 20
23.6300
 30
0.0000
 11
15.2217
 21
23.1889
 31
0.0000
  0
LINE
  8
21
 10
15.7206
 20
24.5122
 30
0.0000
 11
15.7206
 21
23.1889
 31
0.0000
  0
LINE
  8
21
 10
15.7206
 20
23.1889
 30
0.0000
 11
16.3822
 21
23.1889
 31
0.0000
  0
LINE
  8
21
 10
16.3822
 20
23.1889
 30
0.0000
 11
16.6028
 21
23.4094
 31
0.0000
  0
LINE
  8
21
 10
16.6028
 20
23.4094
 30
0.0000
 11
16.6028
 21
24.2916
 31
0.0000
  0
LINE
  8
21
 10
16.6028
 20
24.2916
 30
0.0000
 11
16.3822
 21
24.5122
 31
0.0000
  0
LINE
  8
21
 10
16.3822
 20
24.5122
 30
0.0000
 11
15.7206
 21
24.5122
 31
0.0000
  0
LINE
  8
21
 10
50.8019
 20
19.4147
 30
0.0000
 11
50.0562
 21
19.4147
 31
0.0000
  0
LINE
  8
21
 10
50.0562
 20
19.4147
 30
0.0000
 11
50.0562
 21
18.2962
 31
0.0000
  0
LINE
  8
21
 10
50.0562
 20
18.2962
 30
0.0000
 11
50.8019
 21
18.2962
 31
0.0000
  0
LINE
  8
21
 10
50.0562
 20
18.8554
 30
0.0000
 11
50.4290
 21
18.8554
 31
0.0000
  0
LINE
  8
21
 10
51.2255
 20
18.2962
 30
0.0000
 11
51.2255
 21
19.0419
 31
0.0000
  0
LINE
  8
21
 10
51.2255
 20
19.0419
 30
0.0000
 11
51.7847
 21
19.0419
 31
0.0000
  0
LINE
  8
21
 10
51.7847
 20
19.0419
 30
0.0000
 11
51.9712
 21
18.8554
 31
0.0000
  0
LINE
  8
21
 10
51.9712
 20
18.8554
 30
0.0000
 11
51.9712
 21
18.2962
 31
0.0000
  0
LINE
  8
21
 10
53.1405
 20
19.0419
 30
0.0000
 11
52.5812
 21
19.0419
 31
0.0000
  0
LINE
  8
21
 10
52.5812
 20
19.0419
 30
0.0000
 11
52.3948
 21
18.8554
 31
0.0000
  0
LINE
  8
21
 10
52.3948
 20
18.8554
 30
0.0000
 11
52.3948
 21
18.4826
 31
0.0000
  0
LINE
  8
21
 10
52.3948
 20
18.4826
 30
0.0000
 11
52.5812
 21
18.2962
 31
0.0000
  0
LINE
  8
21
 10
52.5812
 20
18.2962
 30
0.0000
 11
53.1405
 21
18.2962
 31
0.0000
  0
LINE
  8
21
 10
53.7505
 20
18.2962
 30
0.0000
 11
54.1233
 21
18.2962
 31
0.0000
  0
LINE
  8
21
 10
54.1233
 20
18.2962
 30
0.0000
 11
54.3098
 21
18.4826
 31
0.0000
  0
LINE
  8
21
 10
54.3098
 20
18.4826
 30
0.0000
 11
54.3098
 21
18.8554
 31
0.0000
  0
LINE
  8
21
 10
54.3098
 20
18.8554
 30
0.0000
 11
54.1233
 21
19.0419
 31
0.0000
  0
LINE
  8
21
 10
54.1233
 20
19.0419
 30
0.0000
 11
53.7505
 21
19.0419
 31
0.0000
  0
LINE
  8
21
 10
53.7505
 20
19.0419
 30
0.0000
 11
53.5641
 21
18.8554
 31
0.0000
  0
LINE
  8
21
 10
53.5641
 20
18.8554
 30
0.0000
 11
53.5641
 21
18.4826
 31
0.0000
  0
LINE
  8
21
 10
53.5641
 20
18.4826
 30
0.0000
 11
53.7505
 21
18.2962
 31
0.0000
  0
LINE
  8
21
 10
55.4791
 20
19.4147
 30
0.0000
 11
55.4791
 21
18.2962
 31
0.0000
  0
LINE
  8
21
 10
55.4791
 20
18.2962
 30
0.0000
 11
54.9198
 21
18.2962
 31
0.0000
  0
LINE
  8
21
 10
54.9198
 20
18.2962
 30
0.0000
 11
54.7334
 21
18.4826
 31
0.0000
  0
LINE
  8
21
 10
54.7334
 20
18.4826
 30
0.0000
 11
54.7334
 21
18.8554
 31
0.0000
  0
LINE
  8
21
 10
54.7334
 20
18.8554
 30
0.0000
 11
54.9198
 21
19.0419
 31
0.0000
  0
LINE
  8
21
 10
54.9198
 20
19.0419
 30
0.0000
 11
55.4791
 21
19.0419
 31
0.0000
  0
LINE
  8
21
 10
56.4619
 20
18.2962
 30
0.0000
 11
56.0891
 21
18.2962
 31
0.0000
  0
LINE
  8
21
 10
56.0891
 20
18.2962
 30
0.0000
 11
55.9027
 21
18.4826
 31
0.0000
  0
LINE
  8
21
 10
55.9027
 20
18.4826
 30
0.0000
 11
55.9027
 21
18.8554
 31
0.0000
  0
LINE
  8
21
 10
55.9027
 20
18.8554
 30
0.0000
 11
56.0891
 21
19.0419
 31
0.0000
  0
LINE
  8
21
 10
56.0891
 20
19.0419
 30
0.0000
 11
56.4619
 21
19.0419
 31
0.0000
  0
LINE
  8
21
 10
56.4619
 20
19.0419
 30
0.0000
 11
56.6484
 21
18.8554
 31
0.0000
  0
LINE
  8
21
 10
56.6484
 20
18.8554
 30
0.0000
 11
56.6484
 21
18.6690
 31
0.0000
  0
LINE
  8
21
 10
56.6484
 20
18.6690
 30
0.0000
 11
55.9027
 21
18.6690
 31
0.0000
  0
LINE
  8
21
 10
57.0720
 20
18.2962
 30
0.0000
 11
57.0720
 21
19.0419
 31
0.0000
  0
LINE
  8
21
 10
57.0720
 20
18.6690
 30
0.0000
 11
57.4448
 21
19.0419
 31
0.0000
  0
LINE
  8
21
 10
57.4448
 20
19.0419
 30
0.0000
 11
57.6312
 21
19.0419
 31
0.0000
  0
LINE
  8
21
 10
58.0464
 20
18.2962
 30
0.0000
 11
58.6056
 21
18.2962
 31
0.0000
  0
LINE
  8
21
 10
58.6056
 20
18.2962
 30
0.0000
 11
58.7921
 21
18.4826
 31
0.0000
  0
LINE
  8
21
 10
58.7921
 20
18.4826
 30
0.0000
 11
58.6056
 21
18.6690
 31
0.0000
  0
LINE
  8
21
 10
58.6056
 20
18.6690
 30
0.0000
 11
58.2328
 21
18.6690
 31
0.0000
  0
LINE
  8
21
 10
58.2328
 20
18.6690
 30
0.0000
 11
58.0464
 21
18.8554
 31
0.0000
  0
LINE
  8
21
 10
58.0464
 20
18.8554
 30
0.0000
 11
58.2328
 21
19.0419
 31
0.0000
  0
LINE
  8
21
 10
58.2328
 20
19.0419
 30
0.0000
 11
58.7921
 21
19.0419
 31
0.0000
  0
LINE
  8
21
 10
59.2157
 20
19.0419
 30
0.0000
 11
59.4021
 21
19.0419
 31
0.0000
  0
LINE
  8
21
 10
59.4021
 20
19.0419
 30
0.0000
 11
59.4021
 21
18.8554
 31
0.0000
  0
LINE
  8
21
 10
59.4021
 20
18.8554
 30
0.0000
 11
59.2157
 21
18.8554
 31
0.0000
  0
LINE
  8
21
 10
59.2157
 20
18.8554
 30
0.0000
 11
59.2157
 21
19.0419
 31
0.0000
  0
LINE
  8
21
 10
59.2157
 20
18.4826
 30
0.0000
 11
59.4021
 21
18.4826
 31
0.0000
  0
LINE
  8
21
 10
59.4021
 20
18.4826
 30
0.0000
 11
59.4021
 21
18.2962
 31
0.0000
  0
LINE
  8
21
 10
59.4021
 20
18.2962
 30
0.0000
 11
59.2157
 21
18.2962
 31
0.0000
  0
LINE
  8
21
 10
59.2157
 20
18.2962
 30
0.0000
 11
59.2157
 21
18.4826
 31
0.0000
  0
LINE
  8
21
 10
52.9712
 20
16.1712
 30
0.0000
 11
52.9712
 21
16.9169
 31
0.0000
  0
LINE
  8
21
 10
52.9712
 20
16.9169
 30
0.0000
 11
53.3440
 21
17.2897
 31
0.0000
  0
LINE
  8
21
 10
53.3440
 20
17.2897
 30
0.0000
 11
53.7169
 21
16.9169
 31
0.0000
  0
LINE
  8
21
 10
53.7169
 20
16.9169
 30
0.0000
 11
53.7169
 21
16.1712
 31
0.0000
  0
LINE
  8
21
 10
52.9712
 20
16.7304
 30
0.0000
 11
53.7169
 21
16.7304
 31
0.0000
  0
LINE
  8
21
 10
55.5612
 20
16.1712
 30
0.0000
 11
55.5612
 21
17.2897
 31
0.0000
  0
LINE
  8
21
 10
55.5612
 20
17.2897
 30
0.0000
 11
56.1204
 21
17.2897
 31
0.0000
  0
LINE
  8
21
 10
56.1204
 20
17.2897
 30
0.0000
 11
56.3069
 21
17.1033
 31
0.0000
  0
LINE
  8
21
 10
56.3069
 20
17.1033
 30
0.0000
 11
56.3069
 21
16.9169
 31
0.0000
  0
LINE
  8
21
 10
56.3069
 20
16.9169
 30
0.0000
 11
56.1204
 21
16.7304
 31
0.0000
  0
LINE
  8
21
 10
56.1204
 20
16.7304
 30
0.0000
 11
56.3069
 21
16.5440
 31
0.0000
  0
LINE
  8
21
 10
56.3069
 20
16.5440
 30
0.0000
 11
56.3069
 21
16.3576
 31
0.0000
  0
LINE
  8
21
 10
56.3069
 20
16.3576
 30
0.0000
 11
56.1204
 21
16.1712
 31
0.0000
  0
LINE
  8
21
 10
56.1204
 20
16.1712
 30
0.0000
 11
55.5612
 21
16.1712
 31
0.0000
  0
LINE
  8
21
 10
55.5612
 20
16.7304
 30
0.0000
 11
56.1204
 21
16.7304
 31
0.0000
  0
LINE
  8
21
 10
51.9169
 20
8.1633
 30
0.0000
 11
51.7304
 21
8.3497
 31
0.0000
  0
LINE
  8
21
 10
51.7304
 20
8.3497
 30
0.0000
 11
51.3576
 21
8.3497
 31
0.0000
  0
LINE
  8
21
 10
51.3576
 20
8.3497
 30
0.0000
 11
51.1712
 21
8.1633
 31
0.0000
  0
LINE
  8
21
 10
51.1712
 20
8.1633
 30
0.0000
 11
51.1712
 21
7.4176
 31
0.0000
  0
LINE
  8
21
 10
51.1712
 20
7.4176
 30
0.0000
 11
51.3576
 21
7.2312
 31
0.0000
  0
LINE
  8
21
 10
51.3576
 20
7.2312
 30
0.0000
 11
51.7304
 21
7.2312
 31
0.0000
  0
LINE
  8
21
 10
51.7304
 20
7.2312
 30
0.0000
 11
51.9169
 21
7.4176
 31
0.0000
  0
LINE
  8
21
 10
52.5269
 20
7.2312
 30
0.0000
 11
52.8997
 21
7.2312
 31
0.0000
  0
LINE
  8
21
 10
52.8997
 20
7.2312
 30
0.0000
 11
53.0862
 21
7.4176
 31
0.0000
  0
LINE
  8
21
 10
53.0862
 20
7.4176
 30
0.0000
 11
53.0862
 21
7.7904
 31
0.0000
  0
LINE
  8
21
 10
53.0862
 20
7.7904
 30
0.0000
 11
52.8997
 21
7.9769
 31
0.0000
  0
LINE
  8
21
 10
52.8997
 20
7.9769
 30
0.0000
 11
52.5269
 21
7.9769
 31
0.0000
  0
LINE
  8
21
 10
52.5269
 20
7.9769
 30
0.0000
 11
52.3405
 21
7.7904
 31
0.0000
  0
LINE
  8
21
 10
52.3405
 20
7.7904
 30
0.0000
 11
52.3405
 21
7.4176
 31
0.0000
  0
LINE
  8
21
 10
52.3405
 20
7.4176
 30
0.0000
 11
52.5269
 21
7.2312
 31
0.0000
  0
LINE
  8
21
 10
53.5098
 20
7.2312
 30
0.0000
 11
53.5098
 21
7.9769
 31
0.0000
  0
LINE
  8
21
 10
53.5098
 20
7.9769
 30
0.0000
 11
53.6962
 21
7.9769
 31
0.0000
  0
LINE
  8
21
 10
53.6962
 20
7.9769
 30
0.0000
 11
53.8826
 21
7.7904
 31
0.0000
  0
LINE
  8
21
 10
53.8826
 20
7.7904
 30
0.0000
 11
53.8826
 21
7.2312
 31
0.0000
  0
LINE
  8
21
 10
53.8826
 20
7.7904
 30
0.0000
 11
54.0690
 21
7.9769
 31
0.0000
  0
LINE
  8
21
 10
54.0690
 20
7.9769
 30
0.0000
 11
54.2555
 21
7.7904
 31
0.0000
  0
LINE
  8
21
 10
54.2555
 20
7.7904
 30
0.0000
 11
54.2555
 21
7.2312
 31
0.0000
  0
LINE
  8
21
 10
54.6791
 20
7.2312
 30
0.0000
 11
54.6791
 21
7.9769
 31
0.0000
  0
LINE
  8
21
 10
54.6791
 20
7.9769
 30
0.0000
 11
54.8655
 21
7.9769
 31
0.0000
  0
LINE
  8
21
 10
54.8655
 20
7.9769
 30
0.0000
 11
55.0519
 21
7.7904
 31
0.0000
  0
LINE
  8
21
 10
55.0519
 20
7.7904
 30
0.0000
 11
55.0519
 21
7.2312
 31
0.0000
  0
LINE
  8
21
 10
55.0519
 20
7.7904
 30
0.0000
 11
55.2383
 21
7.9769
 31
0.0000
  0
LINE
  8
21
 10
55.2383
 20
7.9769
 30
0.0000
 11
55.4248
 21
7.7904
 31
0.0000
  0
LINE
  8
21
 10
55.4248
 20
7.7904
 30
0.0000
 11
55.4248
 21
7.2312
 31
0.0000
  0
LINE
  8
21
 10
56.0348
 20
7.2312
 30
0.0000
 11
56.4076
 21
7.2312
 31
0.0000
  0
LINE
  8
21
 10
56.4076
 20
7.2312
 30
0.0000
 11
56.5941
 21
7.4176
 31
0.0000
  0
LINE
  8
21
 10
56.5941
 20
7.4176
 30
0.0000
 11
56.5941
 21
7.7904
 31
0.0000
  0
LINE
  8
21
 10
56.5941
 20
7.7904
 30
0.0000
 11
56.4076
 21
7.9769
 31
0.0000
  0
LINE
  8
21
 10
56.4076
 20
7.9769
 30
0.0000
 11
56.0348
 21
7.9769
 31
0.0000
  0
LINE
  8
21
 10
56.0348
 20
7.9769
 30
0.0000
 11
55.8484
 21
7.7904
 31
0.0000
  0
LINE
  8
21
 10
55.8484
 20
7.7904
 30
0.0000
 11
55.8484
 21
7.4176
 31
0.0000
  0
LINE
  8
21
 10
55.8484
 20
7.4176
 30
0.0000
 11
56.0348
 21
7.2312
 31
0.0000
  0
LINE
  8
21
 10
57.0177
 20
7.2312
 30
0.0000
 11
57.0177
 21
7.9769
 31
0.0000
  0
LINE
  8
21
 10
57.0177
 20
7.9769
 30
0.0000
 11
57.5769
 21
7.9769
 31
0.0000
  0
LINE
  8
21
 10
57.5769
 20
7.9769
 30
0.0000
 11
57.7634
 21
7.7904
 31
0.0000
  0
LINE
  8
21
 10
57.7634
 20
7.7904
 30
0.0000
 11
57.7634
 21
7.2312
 31
0.0000
  0
CIRCLE
  8
21
 10
13.5000
 20
29.5000
 30
0.0000
 40
3.0000
  0
CIRCLE
  8
21
 10
60.5000
 20
29.5000
 30
0.0000
 40
3.0000
  0
CIRCLE
  8
21
 10
60.5000
 20
3.5000
 30
0.0000
 40
3.0000
  0
CIRCLE
  8
21
 10
13.5000
 20
3.5000
 30
0.0000
 40
3.0000
  0
CIRCLE
  8
21
 10
53.3450
 20
10.9200
 30
0.0000
 40
0.6363
  0
CIRCLE
  8
21
 10
53.3450
 20
13.4600
 30
0.0000
 40
0.6363
  0
CIRCLE
  8
21
 10
55.8850
 20
13.4600
 30
0.0000
 40
0.6363
  0
CIRCLE
  8
21
 10
55.8850
 20
10.9200
 30
0.0000
 40
0.6363
  0
CIRCLE
  8
20
 10
13.5000
 20
3.5000
 30
0.0000
 40
1.2500
  0
CIRCLE
  8
20
 10
13.5000
 20
29.5000
 30
0.0000
 40
1.2500
  0
CIRCLE
  8
20
 10
60.5000
 20
29.5000
 30
0.0000
 40
1.2500
  0
CIRCLE
  8
20
 10
60.5000
 20
3.5000
 30
0.0000
 40
1.2500
  0
INSERT
  8
17
  2
OCTAGONP
 10
42.7500
 20
28.3050
 30
0.0000
 41
2.0160
 42
2.0160
 43
1.0000
 50
0.0000
  0
INSERT
  8
17
  2
OCTAGONP
 10
42.7500
 20
28.3050
 30
0.0000
 41
2.0160
 42
2.0160
 43
1.0000
 50
0.0000
  0
INSERT
  8
17
  2
OCTAGONP
 10
42.7500
 20
25.7650
 30
0.0000
 41
2.0160
 42
2.0160
 43
1.0000
 50
0.0000
  0
INSERT
  8
17
  2
OCTAGONP
 10
42.7500
 20
25.7650
 30
0.0000
 41
2.0160
 42
2.0160
 43
1.0000
 50
0.0000
  0
INSERT
  8
17
  2
OCTAGONP
 10
45.2900
 20
28.3050
 30
0.0000
 41
2.0160
 42
2.0160
 43
1.0000
 50
0.0000
  0
INSERT
  8
17
  2
OCTAGONP
 10
45.2900
 20
28.3050
 30
0.0000
 41
2.0160
 42
2.0160
 43
1.0000
 50
0.0000
  0
INSERT
  8
17
  2
OCTAGONP
 10
45.2900
 20
25.7650
 30
0.0000
 41
2.0160
 42
2.0160
 43
1.0000
 50
0.0000
  0
INSERT
  8
17
  2
OCTAGONP
 10
45.2900
 20
25.7650
 30
0.0000
 41
2.0160
 42
2.0160
 43
1.0000
 50
0.0000
  0
INSERT
  8
17
  2
OCTAGONP
 10
47.8300
 20
28.3050
 30
0.0000
 41
2.0160
 42
2.0160
 43
1.0000
 50
0.0000
  0
INSERT
  8
17
  2
OCTAGONP
 10
47.8300
 20
28.3050
 30
0.0000
 41
2.0160
 42
2.0160
 43
1.0000
 50
0.0000
  0
INSERT
  8
17
  2
OCTAGONP
 10
47.8300
 20
25.7650
 30
0.0000
 41
2.0160
 42
2.0160
 43
1.0000
 50
0.0000
  0
INSERT
  8
17
  2
OCTAGONP
 10
47.8300
 20
25.7650
 30
0.0000
 41
2.0160
 42
2.0160
 43
1.0000
 50
0.0000
  0
INSERT
  8
17
  2
OCTAGONP
 10
50.3700
 20
28.3050
 30
0.0000
 41
2.0160
 42
2.0160
 43
1.0000
 50
0.0000
  0
INSERT
  8
17
  2
OCTAGONP
 10
50.3700
 20
28.3050
 30
0.0000
 41
2.0160
 42
2.0160
 43
1.0000
 50
0.0000
  0
INSERT
  8
17
  2
OCTAGONP
 10
50.3700
 20
25.7650
 30
0.0000
 41
2.0160
 42
2.0160
 43
1.0000
 50
0.0000
  0
INSERT
  8
17
  2
OCTAGONP
 10
50.3700
 20
25.7650
 30
0.0000
 41
2.0160
 42
2.0160
 43
1.0000
 50
0.0000
  0
INSERT
  8
17
  2
OCTAGONP
 10
52.9100
 20
28.3050
 30
0.0000
 41
2.0160
 42
2.0160
 43
1.0000
 50
0.0000
  0
INSERT
  8
17
  2
OCTAGONP
 10
52.9100
 20
28.3050
 30
0.0000
 41
2.0160
 42
2.0160
 43
1.0000
 50
0.0000
  0
INSERT
  8
17
  2
OCTAGONP
 10
52.9100
 20
25.7650
 30
0.0000
 41
2.0160
 42
2.0160
 43
1.0000
 50
0.0000
  0
INSERT
  8
17
  2
OCTAGONP
 10
52.9100
 20
25.7650
 30
0.0000
 41
2.0160
 42
2.0160
 43
1.0000
 50
0.0000
  0
INSERT
  8
17
  2
OCTAGONP
 10
55.4500
 20
28.3050
 30
0.0000
 41
2.0160
 42
2.0160
 43
1.0000
 50
0.0000
  0
INSERT
  8
17
  2
OCTAGONP
 10
55.4500
 20
28.3050
 30
0.0000
 41
2.0160
 42
2.0160
 43
1.0000
 50
0.0000
  0
INSERT
  8
17
  2
OCTAGONP
 10
55.4500
 20
25.7650
 30
0.0000
 41
2.0160
 42
2.0160
 43
1.0000
 50
0.0000
  0
INSERT
  8
17
  2
OCTAGONP
 10
55.4500
 20
25.7650
 30
0.0000
 41
2.0160
 42
2.0160
 43
1.0000
 50
0.0000
  0
LINE
  8
21
 10
0.8400
 20
17.1925
 30
0.0000
 11
1.4750
 21
16.5575
 31
0.0000
  0
LINE
  8
21
 10
1.4750
 20
16.5575
 30
0.0000
 11
2.7450
 21
16.5575
 31
0.0000
  0
LINE
  8
21
 10
2.7450
 20
16.5575
 30
0.0000
 11
3.3800
 21
17.1925
 31
0.0000
  0
LINE
  8
21
 10
3.3800
 20
17.1925
 30
0.0000
 11
4.0150
 21
16.5575
 31
0.0000
  0
LINE
  8
21
 10
4.0150
 20
16.5575
 30
0.0000
 11
5.2850
 21
16.5575
 31
0.0000
  0
LINE
  8
21
 10
5.2850
 20
16.5575
 30
0.0000
 11
5.9200
 21
17.1925
 31
0.0000
  0
LINE
  8
21
 10
5.9200
 20
17.1925
 30
0.0000
 11
6.5550
 21
16.5575
 31
0.0000
  0
LINE
  8
21
 10
6.5550
 20
16.5575
 30
0.0000
 11
7.8250
 21
16.5575
 31
0.0000
  0
LINE
  8
21
 10
7.8250
 20
16.5575
 30
0.0000
 11
8.4600
 21
17.1925
 31
0.0000
  0
LINE
  8
21
 10
8.4600
 20
17.1925
 30
0.0000
 11
9.0950
 21
16.5575
 31
0.0000
  0
LINE
  8
21
 10
9.0950
 20
16.5575
 30
0.0000
 11
10.3650
 21
16.5575
 31
0.0000
  0
LINE
  8
21
 10
10.3650
 20
16.5575
 30
0.0000
 11
11.0000
 21
17.1925
 31
0.0000
  0
LINE
  8
21
 10
11.0000
 20
17.1925
 30
0.0000
 11
11.6350
 21
16.5575
 31
0.0000
  0
LINE
  8
21
 10
11.6350
 20
16.5575
 30
0.0000
 11
12.9050
 21
16.5575
 31
0.0000
  0
LINE
  8
21
 10
12.9050
 20
16.5575
 30
0.0000
 11
13.5400
 21
17.1925
 31
0.0000
  0
LINE
  8
21
 10
13.5400
 20
17.1925
 30
0.0000
 11
14.1750
 21
16.5575
 31
0.0000
  0
LINE
  8
21
 10
14.1750
 20
16.5575
 30
0.0000
 11
15.4450
 21
16.5575
 31
0.0000
  0
LINE
  8
21
 10
15.4450
 20
16.5575
 30
0.0000
 11
16.0800
 21
17.1925
 31
0.0000
  0
LINE
  8
21
 10
0.8400
 20
17.1925
 30
0.0000
 11
0.8400
 21
21.0025
 31
0.0000
  0
LINE
  8
21
 10
0.8400
 20
21.0025
 30
0.0000
 11
1.4750
 21
21.6375
 31
0.0000
  0
LINE
  8
21
 10
1.4750
 20
21.6375
 30
0.0000
 11
2.7450
 21
21.6375
 31
0.0000
  0
LINE
  8
21
 10
2.7450
 20
21.6375
 30
0.0000
 11
3.3800
 21
21.0025
 31
0.0000
  0
LINE
  8
21
 10
3.3800
 20
21.0025
 30
0.0000
 11
4.0150
 21
21.6375
 31
0.0000
  0
LINE
  8
21
 10
4.0150
 20
21.6375
 30
0.0000
 11
5.2850
 21
21.6375
 31
0.0000
  0
LINE
  8
21
 10
5.2850
 20
21.6375
 30
0.0000
 11
5.9200
 21
21.0025
 31
0.0000
  0
LINE
  8
21
 10
5.9200
 20
21.0025
 30
0.0000
 11
6.5550
 21
21.6375
 31
0.0000
  0
LINE
  8
21
 10
6.5550
 20
21.6375
 30
0.0000
 11
7.8250
 21
21.6375
 31
0.0000
  0
LINE
  8
21
 10
7.8250
 20
21.6375
 30
0.0000
 11
8.4600
 21
21.0025
 31
0.0000
  0
LINE
  8
21
 10
8.4600
 20
21.0025
 30
0.0000
 11
9.0950
 21
21.6375
 31
0.0000
  0
LINE
  8
21
 10
9.0950
 20
21.6375
 30
0.0000
 11
10.3650
 21
21.6375
 31
0.0000
  0
LINE
  8
21
 10
10.3650
 20
21.6375
 30
0.0000
 11
11.0000
 21
21.0025
 31
0.0000
  0
LINE
  8
21
 10
11.0000
 20
21.0025
 30
0.0000
 11
11.6350
 21
21.6375
 31
0.0000
  0
LINE
  8
21
 10
11.6350
 20
21.6375
 30
0.0000
 11
12.9050
 21
21.6375
 31
0.0000
  0
LINE
  8
21
 10
12.9050
 20
21.6375
 30
0.0000
 11
13.5400
 21
21.0025
 31
0.0000
  0
LINE
  8
21
 10
13.5400
 20
21.0025
 30
0.0000
 11
14.1750
 21
21.6375
 31
0.0000
  0
LINE
  8
21
 10
14.1750
 20
21.6375
 30
0.0000
 11
15.4450
 21
21.6375
 31
0.0000
  0
LINE
  8
21
 10
15.4450
 20
21.6375
 30
0.0000
 11
16.0800
 21
21.0025
 31
0.0000
  0
LINE
  8
21
 10
16.0800
 20
21.0025
 30
0.0000
 11
16.7150
 21
21.6375
 31
0.0000
  0
LINE
  8
21
 10
16.7150
 20
21.6375
 30
0.0000
 11
17.9850
 21
21.6375
 31
0.0000
  0
LINE
  8
21
 10
17.9850
 20
21.6375
 30
0.0000
 11
18.6200
 21
21.0025
 31
0.0000
  0
LINE
  8
21
 10
18.6200
 20
21.0025
 30
0.0000
 11
19.2550
 21
21.6375
 31
0.0000
  0
LINE
  8
21
 10
19.2550
 20
21.6375
 30
0.0000
 11
20.5250
 21
21.6375
 31
0.0000
  0
LINE
  8
21
 10
20.5250
 20
21.6375
 30
0.0000
 11
21.1600
 21
21.0025
 31
0.0000
  0
LINE
  8
21
 10
21.1600
 20
21.0025
 30
0.0000
 11
21.7950
 21
21.6375
 31
0.0000
  0
LINE
  8
21
 10
21.7950
 20
21.6375
 30
0.0000
 11
23.0650
 21
21.6375
 31
0.0000
  0
LINE
  8
21
 10
23.0650
 20
21.6375
 30
0.0000
 11
23.7000
 21
21.0025
 31
0.0000
  0
LINE
  8
21
 10
23.7000
 20
21.0025
 30
0.0000
 11
24.3350
 21
21.6375
 31
0.0000
  0
LINE
  8
21
 10
24.3350
 20
21.6375
 30
0.0000
 11
25.6050
 21
21.6375
 31
0.0000
  0
LINE
  8
21
 10
25.6050
 20
21.6375
 30
0.0000
 11
26.2400
 21
21.0025
 31
0.0000
  0
LINE
  8
21
 10
26.2400
 20
21.0025
 30
0.0000
 11
26.8750
 21
21.6375
 31
0.0000
  0
LINE
  8
21
 10
26.8750
 20
21.6375
 30
0.0000
 11
28.1450
 21
21.6375
 31
0.0000
  0
LINE
  8
21
 10
28.1450
 20
21.6375
 30
0.0000
 11
28.7800
 21
21.0025
 31
0.0000
  0
LINE
  8
21
 10
28.7800
 20
21.0025
 30
0.0000
 11
29.4150
 21
21.6375
 31
0.0000
  0
LINE
  8
21
 10
29.4150
 20
21.6375
 30
0.0000
 11
30.6850
 21
21.6375
 31
0.0000
  0
LINE
  8
21
 10
31.3200
 20
21.0025
 30
0.0000
 11
30.6850
 21
21.6375
 31
0.0000
  0
LINE
  8
21
 10
31.3200
 20
21.0025
 30
0.0000
 11
31.9550
 21
21.6375
 31
0.0000
  0
LINE
  8
21
 10
33.2250
 20
21.6375
 30
0.0000
 11
31.9550
 21
21.6375
 31
0.0000
  0
LINE
  8
21
 10
33.2250
 20
21.6375
 30
0.0000
 11
33.8600
 21
21.0025
 31
0.0000
  0
LINE
  8
21
 10
33.8600
 20
21.0025
 30
0.0000
 11
34.4950
 21
21.6375
 31
0.0000
  0
LINE
  8
21
 10
35.7650
 20
21.6375
 30
0.0000
 11
34.4950
 21
21.6375
 31
0.0000
  0
LINE
  8
21
 10
35.7650
 20
21.6375
 30
0.0000
 11
36.4000
 21
21.0025
 31
0.0000
  0
LINE
  8
21
 10
36.4000
 20
21.0025
 30
0.0000
 11
37.0350
 21
21.6375
 31
0.0000
  0
LINE
  8
21
 10
38.3050
 20
21.6375
 30
0.0000
 11
37.0350
 21
21.6375
 31
0.0000
  0
LINE
  8
21
 10
38.3050
 20
21.6375
 30
0.0000
 11
38.9400
 21
21.0025
 31
0.0000
  0
LINE
  8
21
 10
38.9400
 20
21.0025
 30
0.0000
 11
39.5750
 21
21.6375
 31
0.0000
  0
LINE
  8
21
 10
40.8450
 20
21.6375
 30
0.0000
 11
39.5750
 21
21.6375
 31
0.0000
  0
LINE
  8
21
 10
40.8450
 20
21.6375
 30
0.0000
 11
41.4800
 21
21.0025
 31
0.0000
  0
LINE
  8
21
 10
41.4800
 20
21.0025
 30
0.0000
 11
42.1150
 21
21.6375
 31
0.0000
  0
LINE
  8
21
 10
43.3850
 20
21.6375
 30
0.0000
 11
42.1150
 21
21.6375
 31
0.0000
  0
LINE
  8
21
 10
43.3850
 20
21.6375
 30
0.0000
 11
44.0200
 21
21.0025
 31
0.0000
  0
LINE
  8
21
 10
44.0200
 20
21.0025
 30
0.0000
 11
44.6550
 21
21.6375
 31
0.0000
  0
LINE
  8
21
 10
45.9250
 20
21.6375
 30
0.0000
 11
44.6550
 21
21.6375
 31
0.0000
  0
LINE
  8
21
 10
45.9250
 20
21.6375
 30
0.0000
 11
46.5600
 21
21.0025
 31
0.0000
  0
LINE
  8
21
 10
46.5600
 20
17.1925
 30
0.0000
 11
45.9250
 21
16.5575
 31
0.0000
  0
LINE
  8
21
 10
45.9250
 20
16.5575
 30
0.0000
 11
44.6550
 21
16.5575
 31
0.0000
  0
LINE
  8
21
 10
44.0200
 20
17.1925
 30
0.0000
 11
44.6550
 21
16.5575
 31
0.0000
  0
LINE
  8
21
 10
44.0200
 20
17.1925
 30
0.0000
 11
43.3850
 21
16.5575
 31
0.0000
  0
LINE
  8
21
 10
43.3850
 20
16.5575
 30
0.0000
 11
42.1150
 21
16.5575
 31
0.0000
  0
LINE
  8
21
 10
41.4800
 20
17.1925
 30
0.0000
 11
42.1150
 21
16.5575
 31
0.0000
  0
LINE
  8
21
 10
41.4800
 20
17.1925
 30
0.0000
 11
40.8450
 21
16.5575
 31
0.0000
  0
LINE
  8
21
 10
39.5750
 20
16.5575
 30
0.0000
 11
40.8450
 21
16.5575
 31
0.0000
  0
LINE
  8
21
 10
39.5750
 20
16.5575
 30
0.0000
 11
38.9400
 21
17.1925
 31
0.0000
  0
LINE
  8
21
 10
38.9400
 20
17.1925
 30
0.0000
 11
38.3050
 21
16.5575
 31
0.0000
  0
LINE
  8
21
 10
37.0350
 20
16.5575
 30
0.0000
 11
38.3050
 21
16.5575
 31
0.0000
  0
LINE
  8
21
 10
37.0350
 20
16.5575
 30
0.0000
 11
36.4000
 21
17.1925
 31
0.0000
  0
LINE
  8
21
 10
36.4000
 20
17.1925
 30
0.0000
 11
35.7650
 21
16.5575
 31
0.0000
  0
LINE
  8
21
 10
35.7650
 20
16.5575
 30
0.0000
 11
34.4950
 21
16.5575
 31
0.0000
  0
LINE
  8
21
 10
33.8600
 20
17.1925
 30
0.0000
 11
34.4950
 21
16.5575
 31
0.0000
  0
LINE
  8
21
 10
33.8600
 20
17.1925
 30
0.0000
 11
33.2250
 21
16.5575
 31
0.0000
  0
LINE
  8
21
 10
33.2250
 20
16.5575
 30
0.0000
 11
31.9550
 21
16.5575
 31
0.0000
  0
LINE
  8
21
 10
31.3200
 20
17.1925
 30
0.0000
 11
31.9550
 21
16.5575
 31
0.0000
  0
LINE
  8
21
 10
31.3200
 20
17.1925
 30
0.0000
 11
30.6850
 21
16.5575
 31
0.0000
  0
LINE
  8
21
 10
30.6850
 20
16.5575
 30
0.0000
 11
29.4150
 21
16.5575
 31
0.0000
  0
LINE
  8
21
 10
28.7800
 20
17.1925
 30
0.0000
 11
29.4150
 21
16.5575
 31
0.0000
  0
LINE
  8
21
 10
28.7800
 20
17.1925
 30
0.0000
 11
28.1450
 21
16.5575
 31
0.0000
  0
LINE
  8
21
 10
28.1450
 20
16.5575
 30
0.0000
 11
26.8750
 21
16.5575
 31
0.0000
  0
LINE
  8
21
 10
26.2400
 20
17.1925
 30
0.0000
 11
26.8750
 21
16.5575
 31
0.0000
  0
LINE
  8
21
 10
26.2400
 20
17.1925
 30
0.0000
 11
25.6050
 21
16.5575
 31
0.0000
  0
LINE
  8
21
 10
25.6050
 20
16.5575
 30
0.0000
 11
24.3350
 21
16.5575
 31
0.0000
  0
LINE
  8
21
 10
23.7000
 20
17.1925
 30
0.0000
 11
24.3350
 21
16.5575
 31
0.0000
  0
LINE
  8
21
 10
23.7000
 20
17.1925
 30
0.0000
 11
23.0650
 21
16.5575
 31
0.0000
  0
LINE
  8
21
 10
23.0650
 20
16.5575
 30
0.0000
 11
21.7950
 21
16.5575
 31
0.0000
  0
LINE
  8
21
 10
21.1600
 20
17.1925
 30
0.0000
 11
21.7950
 21
16.5575
 31
0.0000
  0
LINE
  8
21
 10
21.1600
 20
17.1925
 30
0.0000
 11
20.5250
 21
16.5575
 31
0.0000
  0
LINE
  8
21
 10
20.5250
 20
16.5575
 30
0.0000
 11
19.2550
 21
16.5575
 31
0.0000
  0
LINE
  8
21
 10
18.6200
 20
17.1925
 30
0.0000
 11
19.2550
 21
16.5575
 31
0.0000
  0
LINE
  8
21
 10
18.6200
 20
17.1925
 30
0.0000
 11
17.9850
 21
16.5575
 31
0.0000
  0
LINE
  8
21
 10
17.9850
 20
16.5575
 30
0.0000
 11
16.7150
 21
16.5575
 31
0.0000
  0
LINE
  8
21
 10
16.0800
 20
17.1925
 30
0.0000
 11
16.7150
 21
16.5575
 31
0.0000
  0
LINE
  8
21
 10
3.3800
 20
21.0025
 30
0.0000
 11
3.3800
 21
17.1925
 31
0.0000
  0
LINE
  8
21
 10
5.9200
 20
21.0025
 30
0.0000
 11
5.9200
 21
17.1925
 31
0.0000
  0
LINE
  8
21
 10
8.4600
 20
21.0025
 30
0.0000
 11
8.4600
 21
17.1925
 31
0.0000
  0
LINE
  8
21
 10
11.0000
 20
21.0025
 30
0.0000
 11
11.0000
 21
17.1925
 31
0.0000
  0
LINE
  8
21
 10
13.5400
 20
21.0025
 30
0.0000
 11
13.5400
 21
17.1925
 31
0.0000
  0
LINE
  8
21
 10
16.0800
 20
21.0025
 30
0.0000
 11
16.0800
 21
17.1925
 31
0.0000
  0
LINE
  8
21
 10
18.6200
 20
21.0025
 30
0.0000
 11
18.6200
 21
17.1925
 31
0.0000
  0
LINE
  8
21
 10
21.1600
 20
21.0025
 30
0.0000
 11
21.1600
 21
17.1925
 31
0.0000
  0
LINE
  8
21
 10
23.7000
 20
21.0025
 30
0.0000
 11
23.7000
 21
17.1925
 31
0.0000
  0
LINE
  8
21
 10
26.2400
 20
21.0025
 30
0.0000
 11
26.2400
 21
17.1925
 31
0.0000
  0
LINE
  8
21
 10
28.7800
 20
21.0025
 30
0.0000
 11
28.7800
 21
17.1925
 31
0.0000
  0
LINE
  8
21
 10
31.3200
 20
21.0025
 30
0.0000
 11
31.3200
 21
17.1925
 31
0.0000
  0
LINE
  8
21
 10
33.8600
 20
21.0025
 30
0.0000
 11
33.8600
 21
17.1925
 31
0.0000
  0
LINE
  8
21
 10
36.4000
 20
21.0025
 30
0.0000
 11
36.4000
 21
17.1925
 31
0.0000
  0
LINE
  8
21
 10
38.9400
 20
21.0025
 30
0.0000
 11
38.9400
 21
17.1925
 31
0.0000
  0
LINE
  8
21
 10
41.4800
 20
21.0025
 30
0.0000
 11
41.4800
 21
17.1925
 31
0.0000
  0
LINE
  8
21
 10
44.0200
 20
21.0025
 30
0.0000
 11
44.0200
 21
17.1925
 31
0.0000
  0
LINE
  8
21
 10
46.5600
 20
21.0025
 30
0.0000
 11
46.5600
 21
17.1925
 31
0.0000
  0
INSERT
  8
17
  2
OCTAGONP
 10
2.1100
 20
17.8275
 30
0.0000
 41
2.0160
 42
2.0160
 43
1.0000
 50
0.0000
  0
INSERT
  8
17
  2
OCTAGONP
 10
2.1100
 20
17.8275
 30
0.0000
 41
2.0160
 42
2.0160
 43
1.0000
 50
0.0000
  0
INSERT
  8
17
  2
OCTAGONP
 10
2.1100
 20
20.3675
 30
0.0000
 41
2.0160
 42
2.0160
 43
1.0000
 50
0.0000
  0
INSERT
  8
17
  2
OCTAGONP
 10
2.1100
 20
20.3675
 30
0.0000
 41
2.0160
 42
2.0160
 43
1.0000
 50
0.0000
  0
INSERT
  8
17
  2
OCTAGONP
 10
4.6500
 20
17.8275
 30
0.0000
 41
2.0160
 42
2.0160
 43
1.0000
 50
0.0000
  0
INSERT
  8
17
  2
OCTAGONP
 10
4.6500
 20
17.8275
 30
0.0000
 41
2.0160
 42
2.0160
 43
1.0000
 50
0.0000
  0
INSERT
  8
17
  2
OCTAGONP
 10
4.6500
 20
20.3675
 30
0.0000
 41
2.0160
 42
2.0160
 43
1.0000
 50
0.0000
  0
INSERT
  8
17
  2
OCTAGONP
 10
4.6500
 20
20.3675
 30
0.0000
 41
2.0160
 42
2.0160
 43
1.0000
 50
0.0000
  0
INSERT
  8
17
  2
OCTAGONP
 10
7.1900
 20
17.8275
 30
0.0000
 41
2.0160
 42
2.0160
 43
1.0000
 50
0.0000
  0
INSERT
  8
17
  2
OCTAGONP
 10
7.1900
 20
17.8275
 30
0.0000
 41
2.0160
 42
2.0160
 43
1.0000
 50
0.0000
  0
INSERT
  8
17
  2
OCTAGONP
 10
7.1900
 20
20.3675
 30
0.0000
 41
2.0160
 42
2.0160
 43
1.0000
 50
0.0000
  0
INSERT
  8
17
  2
OCTAGONP
 10
7.1900
 20
20.3675
 30
0.0000
 41
2.0160
 42
2.0160
 43
1.0000
 50
0.0000
  0
INSERT
  8
17
  2
OCTAGONP
 10
9.7300
 20
17.8275
 30
0.0000
 41
2.0160
 42
2.0160
 43
1.0000
 50
0.0000
  0
INSERT
  8
17
  2
OCTAGONP
 10
9.7300
 20
17.8275
 30
0.0000
 41
2.0160
 42
2.0160
 43
1.0000
 50
0.0000
  0
INSERT
  8
17
  2
OCTAGONP
 10
9.7300
 20
20.3675
 30
0.0000
 41
2.0160
 42
2.0160
 43
1.0000
 50
0.0000
  0
INSERT
  8
17
  2
OCTAGONP
 10
9.7300
 20
20.3675
 30
0.0000
 41
2.0160
 42
2.0160
 43
1.0000
 50
0.0000
  0
INSERT
  8
17
  2
OCTAGONP
 10
12.2700
 20
17.8275
 30
0.0000
 41
2.0160
 42
2.0160
 43
1.0000
 50
0.0000
  0
INSERT
  8
17
  2
OCTAGONP
 10
12.2700
 20
17.8275
 30
0.0000
 41
2.0160
 42
2.0160
 43
1.0000
 50
0.0000
  0
INSERT
  8
17
  2
OCTAGONP
 10
12.2700
 20
20.3675
 30
0.0000
 41
2.0160
 42
2.0160
 43
1.0000
 50
0.0000
  0
INSERT
  8
17
  2
OCTAGONP
 10
12.2700
 20
20.3675
 30
0.0000
 41
2.0160
 42
2.0160
 43
1.0000
 50
0.0000
  0
INSERT
  8
17
  2
OCTAGONP
 10
14.8100
 20
17.8275
 30
0.0000
 41
2.0160
 42
2.0160
 43
1.0000
 50
0.0000
  0
INSERT
  8
17
  2
OCTAGONP
 10
14.8100
 20
17.8275
 30
0.0000
 41
2.0160
 42
2.0160
 43
1.0000
 50
0.0000
  0
INSERT
  8
17
  2
OCTAGONP
 10
14.8100
 20
20.3675
 30
0.0000
 41
2.0160
 42
2.0160
 43
1.0000
 50
0.0000
  0
INSERT
  8
17
  2
OCTAGONP
 10
14.8100
 20
20.3675
 30
0.0000
 41
2.0160
 42
2.0160
 43
1.0000
 50
0.0000
  0
INSERT
  8
17
  2
OCTAGONP
 10
17.3500
 20
17.8275
 30
0.0000
 41
2.0160
 42
2.0160
 43
1.0000
 50
0.0000
  0
INSERT
  8
17
  2
OCTAGONP
 10
17.3500
 20
17.8275
 30
0.0000
 41
2.0160
 42
2.0160
 43
1.0000
 50
0.0000
  0
INSERT
  8
17
  2
OCTAGONP
 10
17.3500
 20
20.3675
 30
0.0000
 41
2.0160
 42
2.0160
 43
1.0000
 50
0.0000
  0
INSERT
  8
17
  2
OCTAGONP
 10
17.3500
 20
20.3675
 30
0.0000
 41
2.0160
 42
2.0160
 43
1.0000
 50
0.0000
  0
INSERT
  8
17
  2
OCTAGONP
 10
19.8900
 20
17.8275
 30
0.0000
 41
2.0160
 42
2.0160
 43
1.0000
 50
0.0000
  0
INSERT
  8
17
  2
OCTAGONP
 10
19.8900
 20
17.8275
 30
0.0000
 41
2.0160
 42
2.0160
 43
1.0000
 50
0.0000
  0
INSERT
  8
17
  2
OCTAGONP
 10
19.8900
 20
20.3675
 30
0.0000
 41
2.0160
 42
2.0160
 43
1.0000
 50
0.0000
  0
INSERT
  8
17
  2
OCTAGONP
 10
19.8900
 20
20.3675
 30
0.0000
 41
2.0160
 42
2.0160
 43
1.0000
 50
0.0000
  0
INSERT
  8
17
  2
OCTAGONP
 10
22.4300
 20
17.8275
 30
0.0000
 41
2.0160
 42
2.0160
 43
1.0000
 50
0.0000
  0
INSERT
  8
17
  2
OCTAGONP
 10
22.4300
 20
17.8275
 30
0.0000
 41
2.0160
 42
2.0160
 43
1.0000
 50
0.0000
  0
INSERT
  8
17
  2
OCTAGONP
 10
22.4300
 20
20.3675
 30
0.0000
 41
2.0160
 42
2.0160
 43
1.0000
 50
0.0000
  0
INSERT
  8
17
  2
OCTAGONP
 10
22.4300
 20
20.3675
 30
0.0000
 41
2.0160
 42
2.0160
 43
1.0000
 50
0.0000
  0
INSERT
  8
17
  2
OCTAGONP
 10
24.9700
 20
17.8275
 30
0.0000
 41
2.0160
 42
2.0160
 43
1.0000
 50
0.0000
  0
INSERT
  8
17
  2
OCTAGONP
 10
24.9700
 20
17.8275
 30
0.0000
 41
2.0160
 42
2.0160
 43
1.0000
 50
0.0000
  0
INSERT
  8
17
  2
OCTAGONP
 10
24.9700
 20
20.3675
 30
0.0000
 41
2.0160
 42
2.0160
 43
1.0000
 50
0.0000
  0
INSERT
  8
17
  2
OCTAGONP
 10
24.9700
 20
20.3675
 30
0.0000
 41
2.0160
 42
2.0160
 43
1.0000
 50
0.0000
  0
INSERT
  8
17
  2
OCTAGONP
 10
27.5100
 20
17.8275
 30
0.0000
 41
2.0160
 42
2.0160
 43
1.0000
 50
0.0000
  0
INSERT
  8
17
  2
OCTAGONP
 10
27.5100
 20
17.8275
 30
0.0000
 41
2.0160
 42
2.0160
 43
1.0000
 50
0.0000
  0
INSERT
  8
17
  2
OCTAGONP
 10
27.5100
 20
20.3675
 30
0.0000
 41
2.0160
 42
2.0160
 43
1.0000
 50
0.0000
  0
INSERT
  8
17
  2
OCTAGONP
 10
27.5100
 20
20.3675
 30
0.0000
 41
2.0160
 42
2.0160
 43
1.0000
 50
0.0000
  0
INSERT
  8
17
  2
OCTAGONP
 10
30.0500
 20
17.8275
 30
0.0000
 41
2.0160
 42
2.0160
 43
1.0000
 50
0.0000
  0
INSERT
  8
17
  2
OCTAGONP
 10
30.0500
 20
17.8275
 30
0.0000
 41
2.0160
 42
2.0160
 43
1.0000
 50
0.0000
  0
INSERT
  8
17
  2
OCTAGONP
 10
30.0500
 20
20.3675
 30
0.0000
 41
2.0160
 42
2.0160
 43
1.0000
 50
0.0000
  0
INSERT
  8
17
  2
OCTAGONP
 10
30.0500
 20
20.3675
 30
0.0000
 41
2.0160
 42
2.0160
 43
1.0000
 50
0.0000
  0
INSERT
  8
17
  2
OCTAGONP
 10
32.5900
 20
17.8275
 30
0.0000
 41
2.0160
 42
2.0160
 43
1.0000
 50
0.0000
  0
INSERT
  8
17
  2
OCTAGONP
 10
32.5900
 20
17.8275
 30
0.0000
 41
2.0160
 42
2.0160
 43
1.0000
 50
0.0000
  0
INSERT
  8
17
  2
OCTAGONP
 10
32.5900
 20
20.3675
 30
0.0000
 41
2.0160
 42
2.0160
 43
1.0000
 50
0.0000
  0
INSERT
  8
17
  2
OCTAGONP
 10
32.5900
 20
20.3675
 30
0.0000
 41
2.0160
 42
2.0160
 43
1.0000
 50
0.0000
  0
INSERT
  8
17
  2
OCTAGONP
 10
35.1300
 20
17.8275
 30
0.0000
 41
2.0160
 42
2.0160
 43
1.0000
 50
0.0000
  0
INSERT
  8
17
  2
OCTAGONP
 10
35.1300
 20
17.8275
 30
0.0000
 41
2.0160
 42
2.0160
 43
1.0000
 50
0.0000
  0
INSERT
  8
17
  2
OCTAGONP
 10
35.1300
 20
20.3675
 30
0.0000
 41
2.0160
 42
2.0160
 43
1.0000
 50
0.0000
  0
INSERT
  8
17
  2
OCTAGONP
 10
35.1300
 20
20.3675
 30
0.0000
 41
2.0160
 42
2.0160
 43
1.0000
 50
0.0000
  0
INSERT
  8
17
  2
OCTAGONP
 10
37.6700
 20
17.8275
 30
0.0000
 41
2.0160
 42
2.0160
 43
1.0000
 50
0.0000
  0
INSERT
  8
17
  2
OCTAGONP
 10
37.6700
 20
17.8275
 30
0.0000
 41
2.0160
 42
2.0160
 43
1.0000
 50
0.0000
  0
INSERT
  8
17
  2
OCTAGONP
 10
37.6700
 20
20.3675
 30
0.0000
 41
2.0160
 42
2.0160
 43
1.0000
 50
0.0000
  0
INSERT
  8
17
  2
OCTAGONP
 10
37.6700
 20
20.3675
 30
0.0000
 41
2.0160
 42
2.0160
 43
1.0000
 50
0.0000
  0
INSERT
  8
17
  2
OCTAGONP
 10
40.2100
 20
17.8275
 30
0.0000
 41
2.0160
 42
2.0160
 43
1.0000
 50
0.0000
  0
INSERT
  8
17
  2
OCTAGONP
 10
40.2100
 20
17.8275
 30
0.0000
 41
2.0160
 42
2.0160
 43
1.0000
 50
0.0000
  0
INSERT
  8
17
  2
OCTAGONP
 10
40.2100
 20
20.3675
 30
0.0000
 41
2.0160
 42
2.0160
 43
1.0000
 50
0.0000
  0
INSERT
  8
17
  2
OCTAGONP
 10
40.2100
 20
20.3675
 30
0.0000
 41
2.0160
 42
2.0160
 43
1.0000
 50
0.0000
  0
INSERT
  8
17
  2
OCTAGONP
 10
42.7500
 20
17.8275
 30
0.0000
 41
2.0160
 42
2.0160
 43
1.0000
 50
0.0000
  0
INSERT
  8
17
  2
OCTAGONP
 10
42.7500
 20
17.8275
 30
0.0000
 41
2.0160
 42
2.0160
 43
1.0000
 50
0.0000
  0
INSERT
  8
17
  2
OCTAGONP
 10
42.7500
 20
20.3675
 30
0.0000
 41
2.0160
 42
2.0160
 43
1.0000
 50
0.0000
  0
INSERT
  8
17
  2
OCTAGONP
 10
42.7500
 20
20.3675
 30
0.0000
 41
2.0160
 42
2.0160
 43
1.0000
 50
0.0000
  0
INSERT
  8
17
  2
OCTAGONP
 10
45.2900
 20
17.8275
 30
0.0000
 41
2.0160
 42
2.0160
 43
1.0000
 50
0.0000
  0
INSERT
  8
17
  2
OCTAGONP
 10
45.2900
 20
17.8275
 30
0.0000
 41
2.0160
 42
2.0160
 43
1.0000
 50
0.0000
  0
INSERT
  8
17
  2
OCTAGONP
 10
45.2900
 20
20.3675
 30
0.0000
 41
2.0160
 42
2.0160
 43
1.0000
 50
0.0000
  0
INSERT
  8
17
  2
OCTAGONP
 10
45.2900
 20
20.3675
 30
0.0000
 41
2.0160
 42
2.0160
 43
1.0000
 50
0.0000
  0
LINE
  8
21
 10
0.8400
 20
7.0325
 30
0.0000
 11
1.4750
 21
6.3975
 31
0.0000
  0
LINE
  8
21
 10
1.4750
 20
6.3975
 30
0.0000
 11
2.7450
 21
6.3975
 31
0.0000
  0
LINE
  8
21
 10
2.7450
 20
6.3975
 30
0.0000
 11
3.3800
 21
7.0325
 31
0.0000
  0
LINE
  8
21
 10
3.3800
 20
7.0325
 30
0.0000
 11
4.0150
 21
6.3975
 31
0.0000
  0
LINE
  8
21
 10
4.0150
 20
6.3975
 30
0.0000
 11
5.2850
 21
6.3975
 31
0.0000
  0
LINE
  8
21
 10
5.2850
 20
6.3975
 30
0.0000
 11
5.9200
 21
7.0325
 31
0.0000
  0
LINE
  8
21
 10
5.9200
 20
7.0325
 30
0.0000
 11
6.5550
 21
6.3975
 31
0.0000
  0
LINE
  8
21
 10
6.5550
 20
6.3975
 30
0.0000
 11
7.8250
 21
6.3975
 31
0.0000
  0
LINE
  8
21
 10
7.8250
 20
6.3975
 30
0.0000
 11
8.4600
 21
7.0325
 31
0.0000
  0
LINE
  8
21
 10
8.4600
 20
7.0325
 30
0.0000
 11
9.0950
 21
6.3975
 31
0.0000
  0
LINE
  8
21
 10
9.0950
 20
6.3975
 30
0.0000
 11
10.3650
 21
6.3975
 31
0.0000
  0
LINE
  8
21
 10
10.3650
 20
6.3975
 30
0.0000
 11
11.0000
 21
7.0325
 31
0.0000
  0
LINE
  8
21
 10
11.0000
 20
7.0325
 30
0.0000
 11
11.6350
 21
6.3975
 31
0.0000
  0
LINE
  8
21
 10
11.6350
 20
6.3975
 30
0.0000
 11
12.9050
 21
6.3975
 31
0.0000
  0
LINE
  8
21
 10
12.9050
 20
6.3975
 30
0.0000
 11
13.5400
 21
7.0325
 31
0.0000
  0
LINE
  8
21
 10
13.5400
 20
7.0325
 30
0.0000
 11
14.1750
 21
6.3975
 31
0.0000
  0
LINE
  8
21
 10
14.1750
 20
6.3975
 30
0.0000
 11
15.4450
 21
6.3975
 31
0.0000
  0
LINE
  8
21
 10
15.4450
 20
6.3975
 30
0.0000
 11
16.0800
 21
7.0325
 31
0.0000
  0
LINE
  8
21
 10
0.8400
 20
7.0325
 30
0.0000
 11
0.8400
 21
10.8425
 31
0.0000
  0
LINE
  8
21
 10
0.8400
 20
10.8425
 30
0.0000
 11
1.4750
 21
11.4775
 31
0.0000
  0
LINE
  8
21
 10
1.4750
 20
11.4775
 30
0.0000
 11
2.7450
 21
11.4775
 31
0.0000
  0
LINE
  8
21
 10
2.7450
 20
11.4775
 30
0.0000
 11
3.3800
 21
10.8425
 31
0.0000
  0
LINE
  8
21
 10
3.3800
 20
10.8425
 30
0.0000
 11
4.0150
 21
11.4775
 31
0.0000
  0
LINE
  8
21
 10
4.0150
 20
11.4775
 30
0.0000
 11
5.2850
 21
11.4775
 31
0.0000
  0
LINE
  8
21
 10
5.2850
 20
11.4775
 30
0.0000
 11
5.9200
 21
10.8425
 31
0.0000
  0
LINE
  8
21
 10
5.9200
 20
10.8425
 30
0.0000
 11
6.5550
 21
11.4775
 31
0.0000
  0
LINE
  8
21
 10
6.5550
 20
11.4775
 30
0.0000
 11
7.8250
 21
11.4775
 31
0.0000
  0
LINE
  8
21
 10
7.8250
 20
11.4775
 30
0.0000
 11
8.4600
 21
10.8425
 31
0.0000
  0
LINE
  8
21
 10
8.4600
 20
10.8425
 30
0.0000
 11
9.0950
 21
11.4775
 31
0.0000
  0
LINE
  8
21
 10
9.0950
 20
11.4775
 30
0.0000
 11
10.3650
 21
11.4775
 31
0.0000
  0
LINE
  8
21
 10
10.3650
 20
11.4775
 30
0.0000
 11
11.0000
 21
10.8425
 31
0.0000
  0
LINE
  8
21
 10
11.0000
 20
10.8425
 30
0.0000
 11
11.6350
 21
11.4775
 31
0.0000
  0
LINE
  8
21
 10
11.6350
 20
11.4775
 30
0.0000
 11
12.9050
 21
11.4775
 31
0.0000
  0
LINE
  8
21
 10
12.9050
 20
11.4775
 30
0.0000
 11
13.5400
 21
10.8425
 31
0.0000
  0
LINE
  8
21
 10
13.5400
 20
10.8425
 30
0.0000
 11
14.1750
 21
11.4775
 31
0.0000
  0
LINE
  8
21
 10
14.1750
 20
11.4775
 30
0.0000
 11
15.4450
 21
11.4775
 31
0.0000
  0
LINE
  8
21
 10
15.4450
 20
11.4775
 30
0.0000
 11
16.0800
 21
10.8425
 31
0.0000
  0
LINE
  8
21
 10
16.0800
 20
10.8425
 30
0.0000
 11
16.7150
 21
11.4775
 31
0.0000
  0
LINE
  8
21
 10
16.7150
 20
11.4775
 30
0.0000
 11
17.9850
 21
11.4775
 31
0.0000
  0
LINE
  8
21
 10
17.9850
 20
11.4775
 30
0.0000
 11
18.6200
 21
10.8425
 31
0.0000
  0
LINE
  8
21
 10
18.6200
 20
10.8425
 30
0.0000
 11
19.2550
 21
11.4775
 31
0.0000
  0
LINE
  8
21
 10
19.2550
 20
11.4775
 30
0.0000
 11
20.5250
 21
11.4775
 31
0.0000
  0
LINE
  8
21
 10
20.5250
 20
11.4775
 30
0.0000
 11
21.1600
 21
10.8425
 31
0.0000
  0
LINE
  8
21
 10
21.1600
 20
10.8425
 30
0.0000
 11
21.7950
 21
11.4775
 31
0.0000
  0
LINE
  8
21
 10
21.7950
 20
11.4775
 30
0.0000
 11
23.0650
 21
11.4775
 31
0.0000
  0
LINE
  8
21
 10
23.0650
 20
11.4775
 30
0.0000
 11
23.7000
 21
10.8425
 31
0.0000
  0
LINE
  8
21
 10
23.7000
 20
10.8425
 30
0.0000
 11
24.3350
 21
11.4775
 31
0.0000
  0
LINE
  8
21
 10
24.3350
 20
11.4775
 30
0.0000
 11
25.6050
 21
11.4775
 31
0.0000
  0
LINE
  8
21
 10
25.6050
 20
11.4775
 30
0.0000
 11
26.2400
 21
10.8425
 31
0.0000
  0
LINE
  8
21
 10
26.2400
 20
10.8425
 30
0.0000
 11
26.8750
 21
11.4775
 31
0.0000
  0
LINE
  8
21
 10
26.8750
 20
11.4775
 30
0.0000
 11
28.1450
 21
11.4775
 31
0.0000
  0
LINE
  8
21
 10
28.1450
 20
11.4775
 30
0.0000
 11
28.7800
 21
10.8425
 31
0.0000
  0
LINE
  8
21
 10
28.7800
 20
10.8425
 30
0.0000
 11
29.4150
 21
11.4775
 31
0.0000
  0
LINE
  8
21
 10
29.4150
 20
11.4775
 30
0.0000
 11
30.6850
 21
11.4775
 31
0.0000
  0
LINE
  8
21
 10
31.3200
 20
10.8425
 30
0.0000
 11
30.6850
 21
11.4775
 31
0.0000
  0
LINE
  8
21
 10
31.3200
 20
10.8425
 30
0.0000
 11
31.9550
 21
11.4775
 31
0.0000
  0
LINE
  8
21
 10
33.2250
 20
11.4775
 30
0.0000
 11
31.9550
 21
11.4775
 31
0.0000
  0
LINE
  8
21
 10
33.2250
 20
11.4775
 30
0.0000
 11
33.8600
 21
10.8425
 31
0.0000
  0
LINE
  8
21
 10
33.8600
 20
10.8425
 30
0.0000
 11
34.4950
 21
11.4775
 31
0.0000
  0
LINE
  8
21
 10
35.7650
 20
11.4775
 30
0.0000
 11
34.4950
 21
11.4775
 31
0.0000
  0
LINE
  8
21
 10
35.7650
 20
11.4775
 30
0.0000
 11
36.4000
 21
10.8425
 31
0.0000
  0
LINE
  8
21
 10
36.4000
 20
10.8425
 30
0.0000
 11
37.0350
 21
11.4775
 31
0.0000
  0
LINE
  8
21
 10
38.3050
 20
11.4775
 30
0.0000
 11
37.0350
 21
11.4775
 31
0.0000
  0
LINE
  8
21
 10
38.3050
 20
11.4775
 30
0.0000
 11
38.9400
 21
10.8425
 31
0.0000
  0
LINE
  8
21
 10
38.9400
 20
10.8425
 30
0.0000
 11
39.5750
 21
11.4775
 31
0.0000
  0
LINE
  8
21
 10
40.8450
 20
11.4775
 30
0.0000
 11
39.5750
 21
11.4775
 31
0.0000
  0
LINE
  8
21
 10
40.8450
 20
11.4775
 30
0.0000
 11
41.4800
 21
10.8425
 31
0.0000
  0
LINE
  8
21
 10
41.4800
 20
10.8425
 30
0.0000
 11
42.1150
 21
11.4775
 31
0.0000
  0
LINE
  8
21
 10
43.3850
 20
11.4775
 30
0.0000
 11
42.1150
 21
11.4775
 31
0.0000
  0
LINE
  8
21
 10
43.3850
 20
11.4775
 30
0.0000
 11
44.0200
 21
10.8425
 31
0.0000
  0
LINE
  8
21
 10
44.0200
 20
10.8425
 30
0.0000
 11
44.6550
 21
11.4775
 31
0.0000
  0
LINE
  8
21
 10
45.9250
 20
11.4775
 30
0.0000
 11
44.6550
 21
11.4775
 31
0.0000
  0
LINE
  8
21
 10
45.9250
 20
11.4775
 30
0.0000
 11
46.5600
 21
10.8425
 31
0.0000
  0
LINE
  8
21
 10
46.5600
 20
7.0325
 30
0.0000
 11
45.9250
 21
6.3975
 31
0.0000
  0
LINE
  8
21
 10
45.9250
 20
6.3975
 30
0.0000
 11
44.6550
 21
6.3975
 31
0.0000
  0
LINE
  8
21
 10
44.0200
 20
7.0325
 30
0.0000
 11
44.6550
 21
6.3975
 31
0.0000
  0
LINE
  8
21
 10
44.0200
 20
7.0325
 30
0.0000
 11
43.3850
 21
6.3975
 31
0.0000
  0
LINE
  8
21
 10
43.3850
 20
6.3975
 30
0.0000
 11
42.1150
 21
6.3975
 31
0.0000
  0
LINE
  8
21
 10
41.4800
 20
7.0325
 30
0.0000
 11
42.1150
 21
6.3975
 31
0.0000
  0
LINE
  8
21
 10
41.4800
 20
7.0325
 30
0.0000
 11
40.8450
 21
6.3975
 31
0.0000
  0
LINE
  8
21
 10
39.5750
 20
6.3975
 30
0.0000
 11
40.8450
 21
6.3975
 31
0.0000
  0
LINE
  8
21
 10
39.5750
 20
6.3975
 30
0.0000
 11
38.9400
 21
7.0325
 31
0.0000
  0
LINE
  8
21
 10
38.9400
 20
7.0325
 30
0.0000
 11
38.3050
 21
6.3975
 31
0.0000
  0
LINE
  8
21
 10
37.0350
 20
6.3975
 30
0.0000
 11
38.3050
 21
6.3975
 31
0.0000
  0
LINE
  8
21
 10
37.0350
 20
6.3975
 30
0.0000
 11
36.4000
 21
7.0325
 31
0.0000
  0
LINE
  8
21
 10
36.4000
 20
7.0325
 30
0.0000
 11
35.7650
 21
6.3975
 31
0.0000
  0
LINE
  8
21
 10
35.7650
 20
6.3975
 30
0.0000
 11
34.4950
 21
6.3975
 31
0.0000
  0
LINE
  8
21
 10
33.8600
 20
7.0325
 30
0.0000
 11
34.4950
 21
6.3975
 31
0.0000
  0
LINE
  8
21
 10
33.8600
 20
7.0325
 30
0.0000
 11
33.2250
 21
6.3975
 31
0.0000
  0
LINE
  8
21
 10
33.2250
 20
6.3975
 30
0.0000
 11
31.9550
 21
6.3975
 31
0.0000
  0
LINE
  8
21
 10
31.3200
 20
7.0325
 30
0.0000
 11
31.9550
 21
6.3975
 31
0.0000
  0
LINE
  8
21
 10
31.3200
 20
7.0325
 30
0.0000
 11
30.6850
 21
6.3975
 31
0.0000
  0
LINE
  8
21
 10
30.6850
 20
6.3975
 30
0.0000
 11
29.4150
 21
6.3975
 31
0.0000
  0
LINE
  8
21
 10
28.7800
 20
7.0325
 30
0.0000
 11
29.4150
 21
6.3975
 31
0.0000
  0
LINE
  8
21
 10
28.7800
 20
7.0325
 30
0.0000
 11
28.1450
 21
6.3975
 31
0.0000
  0
LINE
  8
21
 10
28.1450
 20
6.3975
 30
0.0000
 11
26.8750
 21
6.3975
 31
0.0000
  0
LINE
  8
21
 10
26.2400
 20
7.0325
 30
0.0000
 11
26.8750
 21
6.3975
 31
0.0000
  0
LINE
  8
21
 10
26.2400
 20
7.0325
 30
0.0000
 11
25.6050
 21
6.3975
 31
0.0000
  0
LINE
  8
21
 10
25.6050
 20
6.3975
 30
0.0000
 11
24.3350
 21
6.3975
 31
0.0000
  0
LINE
  8
21
 10
23.7000
 20
7.0325
 30
0.0000
 11
24.3350
 21
6.3975
 31
0.0000
  0
LINE
  8
21
 10
23.7000
 20
7.0325
 30
0.0000
 11
23.0650
 21
6.3975
 31
0.0000
  0
LINE
  8
21
 10
23.0650
 20
6.3975
 30
0.0000
 11
21.7950
 21
6.3975
 31
0.0000
  0
LINE
  8
21
 10
21.1600
 20
7.0325
 30
0.0000
 11
21.7950
 21
6.3975
 31
0.0000
  0
LINE
  8
21
 10
21.1600
 20
7.0325
 30
0.0000
 11
20.5250
 21
6.3975
 31
0.0000
  0
LINE
  8
21
 10
20.5250
 20
6.3975
 30
0.0000
 11
19.2550
 21
6.3975
 31
0.0000
  0
LINE
  8
21
 10
18.6200
 20
7.0325
 30
0.0000
 11
19.2550
 21
6.3975
 31
0.0000
  0
LINE
  8
21
 10
18.6200
 20
7.0325
 30
0.0000
 11
17.9850
 21
6.3975
 31
0.0000
  0
LINE
  8
21
 10
17.9850
 20
6.3975
 30
0.0000
 11
16.7150
 21
6.3975
 31
0.0000
  0
LINE
  8
21
 10
16.0800
 20
7.0325
 30
0.0000
 11
16.7150
 21
6.3975
 31
0.0000
  0
LINE
  8
21
 10
3.3800
 20
10.8425
 30
0.0000
 11
3.3800
 21
7.0325
 31
0.0000
  0
LINE
  8
21
 10
5.9200
 20
10.8425
 30
0.0000
 11
5.9200
 21
7.0325
 31
0.0000
  0
LINE
  8
21
 10
8.4600
 20
10.8425
 30
0.0000
 11
8.4600
 21
7.0325
 31
0.0000
  0
LINE
  8
21
 10
11.0000
 20
10.8425
 30
0.0000
 11
11.0000
 21
7.0325
 31
0.0000
  0
LINE
  8
21
 10
13.5400
 20
10.8425
 30
0.0000
 11
13.5400
 21
7.0325
 31
0.0000
  0
LINE
  8
21
 10
16.0800
 20
10.8425
 30
0.0000
 11
16.0800
 21
7.0325
 31
0.0000
  0
LINE
  8
21
 10
18.6200
 20
10.8425
 30
0.0000
 11
18.6200
 21
7.0325
 31
0.0000
  0
LINE
  8
21
 10
21.1600
 20
10.8425
 30
0.0000
 11
21.1600
 21
7.0325
 31
0.0000
  0
LINE
  8
21
 10
23.7000
 20
10.8425
 30
0.0000
 11
23.7000
 21
7.0325
 31
0.0000
  0
LINE
  8
21
 10
26.2400
 20
10.8425
 30
0.0000
 11
26.2400
 21
7.0325
 31
0.0000
  0
LINE
  8
21
 10
28.7800
 20
10.8425
 30
0.0000
 11
28.7800
 21
7.0325
 31
0.0000
  0
LINE
  8
21
 10
31.3200
 20
10.8425
 30
0.0000
 11
31.3200
 21
7.0325
 31
0.0000
  0
LINE
  8
21
 10
33.8600
 20
10.8425
 30
0.0000
 11
33.8600
 21
7.0325
 31
0.0000
  0
LINE
  8
21
 10
36.4000
 20
10.8425
 30
0.0000
 11
36.4000
 21
7.0325
 31
0.0000
  0
LINE
  8
21
 10
38.9400
 20
10.8425
 30
0.0000
 11
38.9400
 21
7.0325
 31
0.0000
  0
LINE
  8
21
 10
41.4800
 20
10.8425
 30
0.0000
 11
41.4800
 21
7.0325
 31
0.0000
  0
LINE
  8
21
 10
44.0200
 20
10.8425
 30
0.0000
 11
44.0200
 21
7.0325
 31
0.0000
  0
LINE
  8
21
 10
46.5600
 20
10.8425
 30
0.0000
 11
46.5600
 21
7.0325
 31
0.0000
  0
INSERT
  8
17
  2
OCTAGONP
 10
2.1100
 20
7.6675
 30
0.0000
 41
2.0160
 42
2.0160
 43
1.0000
 50
0.0000
  0
INSERT
  8
17
  2
OCTAGONP
 10
2.1100
 20
7.6675
 30
0.0000
 41
2.0160
 42
2.0160
 43
1.0000
 50
0.0000
  0
INSERT
  8
17
  2
OCTAGONP
 10
2.1100
 20
10.2075
 30
0.0000
 41
2.0160
 42
2.0160
 43
1.0000
 50
0.0000
  0
INSERT
  8
17
  2
OCTAGONP
 10
2.1100
 20
10.2075
 30
0.0000
 41
2.0160
 42
2.0160
 43
1.0000
 50
0.0000
  0
INSERT
  8
17
  2
OCTAGONP
 10
4.6500
 20
7.6675
 30
0.0000
 41
2.0160
 42
2.0160
 43
1.0000
 50
0.0000
  0
INSERT
  8
17
  2
OCTAGONP
 10
4.6500
 20
7.6675
 30
0.0000
 41
2.0160
 42
2.0160
 43
1.0000
 50
0.0000
  0
INSERT
  8
17
  2
OCTAGONP
 10
4.6500
 20
10.2075
 30
0.0000
 41
2.0160
 42
2.0160
 43
1.0000
 50
0.0000
  0
INSERT
  8
17
  2
OCTAGONP
 10
4.6500
 20
10.2075
 30
0.0000
 41
2.0160
 42
2.0160
 43
1.0000
 50
0.0000
  0
INSERT
  8
17
  2
OCTAGONP
 10
7.1900
 20
7.6675
 30
0.0000
 41
2.0160
 42
2.0160
 43
1.0000
 50
0.0000
  0
INSERT
  8
17
  2
OCTAGONP
 10
7.1900
 20
7.6675
 30
0.0000
 41
2.0160
 42
2.0160
 43
1.0000
 50
0.0000
  0
INSERT
  8
17
  2
OCTAGONP
 10
7.1900
 20
10.2075
 30
0.0000
 41
2.0160
 42
2.0160
 43
1.0000
 50
0.0000
  0
INSERT
  8
17
  2
OCTAGONP
 10
7.1900
 20
10.2075
 30
0.0000
 41
2.0160
 42
2.0160
 43
1.0000
 50
0.0000
  0
INSERT
  8
17
  2
OCTAGONP
 10
9.7300
 20
7.6675
 30
0.0000
 41
2.0160
 42
2.0160
 43
1.0000
 50
0.0000
  0
INSERT
  8
17
  2
OCTAGONP
 10
9.7300
 20
7.6675
 30
0.0000
 41
2.0160
 42
2.0160
 43
1.0000
 50
0.0000
  0
INSERT
  8
17
  2
OCTAGONP
 10
9.7300
 20
10.2075
 30
0.0000
 41
2.0160
 42
2.0160
 43
1.0000
 50
0.0000
  0
INSERT
  8
17
  2
OCTAGONP
 10
9.7300
 20
10.2075
 30
0.0000
 41
2.0160
 42
2.0160
 43
1.0000
 50
0.0000
  0
INSERT
  8
17
  2
OCTAGONP
 10
12.2700
 20
7.6675
 30
0.0000
 41
2.0160
 42
2.0160
 43
1.0000
 50
0.0000
  0
INSERT
  8
17
  2
OCTAGONP
 10
12.2700
 20
7.6675
 30
0.0000
 41
2.0160
 42
2.0160
 43
1.0000
 50
0.0000
  0
INSERT
  8
17
  2
OCTAGONP
 10
12.2700
 20
10.2075
 30
0.0000
 41
2.0160
 42
2.0160
 43
1.0000
 50
0.0000
  0
INSERT
  8
17
  2
OCTAGONP
 10
12.2700
 20
10.2075
 30
0.0000
 41
2.0160
 42
2.0160
 43
1.0000
 50
0.0000
  0
INSERT
  8
17
  2
OCTAGONP
 10
14.8100
 20
7.6675
 30
0.0000
 41
2.0160
 42
2.0160
 43
1.0000
 50
0.0000
  0
INSERT
  8
17
  2
OCTAGONP
 10
14.8100
 20
7.6675
 30
0.0000
 41
2.0160
 42
2.0160
 43
1.0000
 50
0.0000
  0
INSERT
  8
17
  2
OCTAGONP
 10
14.8100
 20
10.2075
 30
0.0000
 41
2.0160
 42
2.0160
 43
1.0000
 50
0.0000
  0
INSERT
  8
17
  2
OCTAGONP
 10
14.8100
 20
10.2075
 30
0.0000
 41
2.0160
 42
2.0160
 43
1.0000
 50
0.0000
  0
INSERT
  8
17
  2
OCTAGONP
 10
17.3500
 20
7.6675
 30
0.0000
 41
2.0160
 42
2.0160
 43
1.0000
 50
0.0000
  0
INSERT
  8
17
  2
OCTAGONP
 10
17.3500
 20
7.6675
 30
0.0000
 41
2.0160
 42
2.0160
 43
1.0000
 50
0.0000
  0
INSERT
  8
17
  2
OCTAGONP
 10
17.3500
 20
10.2075
 30
0.0000
 41
2.0160
 42
2.0160
 43
1.0000
 50
0.0000
  0
INSERT
  8
17
  2
OCTAGONP
 10
17.3500
 20
10.2075
 30
0.0000
 41
2.0160
 42
2.0160
 43
1.0000
 50
0.0000
  0
INSERT
  8
17
  2
OCTAGONP
 10
19.8900
 20
7.6675
 30
0.0000
 41
2.0160
 42
2.0160
 43
1.0000
 50
0.0000
  0
INSERT
  8
17
  2
OCTAGONP
 10
19.8900
 20
7.6675
 30
0.0000
 41
2.0160
 42
2.0160
 43
1.0000
 50
0.0000
  0
INSERT
  8
17
  2
OCTAGONP
 10
19.8900
 20
10.2075
 30
0.0000
 41
2.0160
 42
2.0160
 43
1.0000
 50
0.0000
  0
INSERT
  8
17
  2
OCTAGONP
 10
19.8900
 20
10.2075
 30
0.0000
 41
2.0160
 42
2.0160
 43
1.0000
 50
0.0000
  0
INSERT
  8
17
  2
OCTAGONP
 10
22.4300
 20
7.6675
 30
0.0000
 41
2.0160
 42
2.0160
 43
1.0000
 50
0.0000
  0
INSERT
  8
17
  2
OCTAGONP
 10
22.4300
 20
7.6675
 30
0.0000
 41
2.0160
 42
2.0160
 43
1.0000
 50
0.0000
  0
INSERT
  8
17
  2
OCTAGONP
 10
22.4300
 20
10.2075
 30
0.0000
 41
2.0160
 42
2.0160
 43
1.0000
 50
0.0000
  0
INSERT
  8
17
  2
OCTAGONP
 10
22.4300
 20
10.2075
 30
0.0000
 41
2.0160
 42
2.0160
 43
1.0000
 50
0.0000
  0
INSERT
  8
17
  2
OCTAGONP
 10
24.9700
 20
7.6675
 30
0.0000
 41
2.0160
 42
2.0160
 43
1.0000
 50
0.0000
  0
INSERT
  8
17
  2
OCTAGONP
 10
24.9700
 20
7.6675
 30
0.0000
 41
2.0160
 42
2.0160
 43
1.0000
 50
0.0000
  0
INSERT
  8
17
  2
OCTAGONP
 10
24.9700
 20
10.2075
 30
0.0000
 41
2.0160
 42
2.0160
 43
1.0000
 50
0.0000
  0
INSERT
  8
17
  2
OCTAGONP
 10
24.9700
 20
10.2075
 30
0.0000
 41
2.0160
 42
2.0160
 43
1.0000
 50
0.0000
  0
INSERT
  8
17
  2
OCTAGONP
 10
27.5100
 20
7.6675
 30
0.0000
 41
2.0160
 42
2.0160
 43
1.0000
 50
0.0000
  0
INSERT
  8
17
  2
OCTAGONP
 10
27.5100
 20
7.6675
 30
0.0000
 41
2.0160
 42
2.0160
 43
1.0000
 50
0.0000
  0
INSERT
  8
17
  2
OCTAGONP
 10
27.5100
 20
10.2075
 30
0.0000
 41
2.0160
 42
2.0160
 43
1.0000
 50
0.0000
  0
INSERT
  8
17
  2
OCTAGONP
 10
27.5100
 20
10.2075
 30
0.0000
 41
2.0160
 42
2.0160
 43
1.0000
 50
0.0000
  0
INSERT
  8
17
  2
OCTAGONP
 10
30.0500
 20
7.6675
 30
0.0000
 41
2.0160
 42
2.0160
 43
1.0000
 50
0.0000
  0
INSERT
  8
17
  2
OCTAGONP
 10
30.0500
 20
7.6675
 30
0.0000
 41
2.0160
 42
2.0160
 43
1.0000
 50
0.0000
  0
INSERT
  8
17
  2
OCTAGONP
 10
30.0500
 20
10.2075
 30
0.0000
 41
2.0160
 42
2.0160
 43
1.0000
 50
0.0000
  0
INSERT
  8
17
  2
OCTAGONP
 10
30.0500
 20
10.2075
 30
0.0000
 41
2.0160
 42
2.0160
 43
1.0000
 50
0.0000
  0
INSERT
  8
17
  2
OCTAGONP
 10
32.5900
 20
7.6675
 30
0.0000
 41
2.0160
 42
2.0160
 43
1.0000
 50
0.0000
  0
INSERT
  8
17
  2
OCTAGONP
 10
32.5900
 20
7.6675
 30
0.0000
 41
2.0160
 42
2.0160
 43
1.0000
 50
0.0000
  0
INSERT
  8
17
  2
OCTAGONP
 10
32.5900
 20
10.2075
 30
0.0000
 41
2.0160
 42
2.0160
 43
1.0000
 50
0.0000
  0
INSERT
  8
17
  2
OCTAGONP
 10
32.5900
 20
10.2075
 30
0.0000
 41
2.0160
 42
2.0160
 43
1.0000
 50
0.0000
  0
INSERT
  8
17
  2
OCTAGONP
 10
35.1300
 20
7.6675
 30
0.0000
 41
2.0160
 42
2.0160
 43
1.0000
 50
0.0000
  0
INSERT
  8
17
  2
OCTAGONP
 10
35.1300
 20
7.6675
 30
0.0000
 41
2.0160
 42
2.0160
 43
1.0000
 50
0.0000
  0
INSERT
  8
17
  2
OCTAGONP
 10
35.1300
 20
10.2075
 30
0.0000
 41
2.0160
 42
2.0160
 43
1.0000
 50
0.0000
  0
INSERT
  8
17
  2
OCTAGONP
 10
35.1300
 20
10.2075
 30
0.0000
 41
2.0160
 42
2.0160
 43
1.0000
 50
0.0000
  0
INSERT
  8
17
  2
OCTAGONP
 10
37.6700
 20
7.6675
 30
0.0000
 41
2.0160
 42
2.0160
 43
1.0000
 50
0.0000
  0
INSERT
  8
17
  2
OCTAGONP
 10
37.6700
 20
7.6675
 30
0.0000
 41
2.0160
 42
2.0160
 43
1.0000
 50
0.0000
  0
INSERT
  8
17
  2
OCTAGONP
 10
37.6700
 20
10.2075
 30
0.0000
 41
2.0160
 42
2.0160
 43
1.0000
 50
0.0000
  0
INSERT
  8
17
  2
OCTAGONP
 10
37.6700
 20
10.2075
 30
0.0000
 41
2.0160
 42
2.0160
 43
1.0000
 50
0.0000
  0
INSERT
  8
17
  2
OCTAGONP
 10
40.2100
 20
7.6675
 30
0.0000
 41
2.0160
 42
2.0160
 43
1.0000
 50
0.0000
  0
INSERT
  8
17
  2
OCTAGONP
 10
40.2100
 20
7.6675
 30
0.0000
 41
2.0160
 42
2.0160
 43
1.0000
 50
0.0000
  0
INSERT
  8
17
  2
OCTAGONP
 10
40.2100
 20
10.2075
 30
0.0000
 41
2.0160
 42
2.0160
 43
1.0000
 50
0.0000
  0
INSERT
  8
17
  2
OCTAGONP
 10
40.2100
 20
10.2075
 30
0.0000
 41
2.0160
 42
2.0160
 43
1.0000
 50
0.0000
  0
INSERT
  8
17
  2
OCTAGONP
 10
42.7500
 20
7.6675
 30
0.0000
 41
2.0160
 42
2.0160
 43
1.0000
 50
0.0000
  0
INSERT
  8
17
  2
OCTAGONP
 10
42.7500
 20
7.6675
 30
0.0000
 41
2.0160
 42
2.0160
 43
1.0000
 50
0.0000
  0
INSERT
  8
17
  2
OCTAGONP
 10
42.7500
 20
10.2075
 30
0.0000
 41
2.0160
 42
2.0160
 43
1.0000
 50
0.0000
  0
INSERT
  8
17
  2
OCTAGONP
 10
42.7500
 20
10.2075
 30
0.0000
 41
2.0160
 42
2.0160
 43
1.0000
 50
0.0000
  0
INSERT
  8
17
  2
OCTAGONP
 10
45.2900
 20
7.6675
 30
0.0000
 41
2.0160
 42
2.0160
 43
1.0000
 50
0.0000
  0
INSERT
  8
17
  2
OCTAGONP
 10
45.2900
 20
7.6675
 30
0.0000
 41
2.0160
 42
2.0160
 43
1.0000
 50
0.0000
  0
INSERT
  8
17
  2
OCTAGONP
 10
45.2900
 20
10.2075
 30
0.0000
 41
2.0160
 42
2.0160
 43
1.0000
 50
0.0000
  0
INSERT
  8
17
  2
OCTAGONP
 10
45.2900
 20
10.2075
 30
0.0000
 41
2.0160
 42
2.0160
 43
1.0000
 50
0.0000
  0
CIRCLE
  8
20
 10
13.5000
 20
3.5000
 30
0.0000
 40
1.8000
  0
CIRCLE
  8
20
 10
60.5000
 20
3.5000
 30
0.0000
 40
1.8000
  0
CIRCLE
  8
20
 10
13.5000
 20
29.5000
 30
0.0000
 40
1.8000
  0
CIRCLE
  8
20
 10
60.5000
 20
29.5000
 30
0.0000
 40
1.8000
  0
ENDSEC
  0
EOF
