  0
SECTION
  2
HEADER
  9
$ACADVER
  1
AC1009
  9
$FILLMODE
 70
0
  9
$EXTMIN
 10
-6.3800
 20
-5.6000
 30
0.0000
  9
$EXTMAX
 10
33.2500
 20
25.8000
 30
0.0000
  0
ENDSEC
  0
SECTION
  2
TABLES
  0
TABLE
  2
LTYPE
 70
1
  0
LTYPE
  2
CONTINUOUS
 70
64
  3
Solid line
 72
65
 73
0
 40
0
  0
ENDTAB
  0
TABLE
  2
LAYER
 70
255
  0
LAYER
  2
17
 70
64
 62
82
  6
CONTINUOUS
  0
LAYER
  2
19
 70
64
 62
2
  6
CONTINUOUS
  0
LAYER
  2
20
 70
64
 62
7
  6
CONTINUOUS
  0
LAYER
  2
21
 70
64
 62
253
  6
CONTINUOUS
  0
LAYER
  2
22
 70
64
 62
253
  6
CONTINUOUS
  0
LAYER
  2
47
 70
64
 62
253
  6
CONTINUOUS
  0
LAYER
  2
50
 70
64
 62
253
  6
CONTINUOUS
  0
LAYER
  2
51
 70
64
 62
253
  6
CONTINUOUS
  0
LAYER
  2
52
 70
64
 62
253
  6
CONTINUOUS
  0
ENDTAB
  0
ENDSEC
  0
SECTION
  2
BLOCKS
  0
BLOCK
  8
0
  2
RECT
 70
64
 10
0.0000
 20
0.0000
 30
0.0000
  3
RECT
  0
SOLID
  8
0
 10
-0.5000
 20
-0.5000
 30
0.0000
 11
0.5000
 21
-0.5000
 31
0.0000
 12
-0.5000
 22
0.5000
 32
0.0000
 13
0.5000
 23
0.5000
 33
0.0000
  0
ENDBLK
  8
0
  0
BLOCK
  8
0
  2
PIE
 70
64
 10
0.0000
 20
0.0000
 30
0.0000
  3
PIE
  0
CIRCLE
  8
0
 10
0.0000
 20
0.0000
 30
0.0000
 40
0.5000
  0
ENDBLK
  8
0
  0
BLOCK
  8
0
  2
OCTAGONP
 70
64
 10
0.0000
 20
0.0000
 30
0.0000
  3
OCTAGONP
  0
POLYLINE
  8
0
 66
1
 10
0.0000
 20
0.0000
 30
0.0000
 40
0.0000
 41
0.0000
 70
1
  0
VERTEX
  8
0
 10
-0.5000
 20
-0.2071
 30
0.0000
  0
VERTEX
  8
0
 10
-0.5000
 20
0.2071
 30
0.0000
  0
VERTEX
  8
0
 10
-0.2071
 20
0.5000
 30
0.0000
  0
VERTEX
  8
0
 10
0.2071
 20
0.5000
 30
0.0000
  0
VERTEX
  8
0
 10
0.5000
 20
0.2071
 30
0.0000
  0
VERTEX
  8
0
 10
0.5000
 20
-0.2071
 30
0.0000
  0
VERTEX
  8
0
 10
0.2071
 20
-0.5000
 30
0.0000
  0
VERTEX
  8
0
 10
-0.2071
 20
-0.5000
 30
0.0000
  0
SEQEND
  8
0
  0
ENDBLK
  8
0
  0
BLOCK
  8
0
  2
SQUAREP
 70
64
 10
0.0000
 20
0.0000
 30
0.0000
  3
SQUAREP
  0
SOLID
  8
0
 10
-0.5000
 20
-0.5000
 30
0.0000
 11
0.5000
 21
-0.5000
 31
0.0000
 12
-0.5000
 22
0.5000
 32
0.0000
 13
0.5000
 23
0.5000
 33
0.0000
  0
ENDBLK
  8
0
  0
BLOCK
  8
0
  2
ROUNDP
 70
64
 10
0.0000
 20
0.0000
 30
0.0000
  3
ROUNDP
  0
CIRCLE
  8
0
 10
0.0000
 20
0.0000
 30
0.0000
 40
0.5000
  0
ENDBLK
  8
0
  0
BLOCK
  8
0
  2
ANNULUSP
 70
64
 10
0.0000
 20
0.0000
 30
0.0000
  3
ANNULUSP
  0
CIRCLE
  8
0
 10
0.0000
 20
0.0000
 30
0.0000
 40
0.5000
  0
ENDBLK
  8
0
  0
BLOCK
  8
0
  2
THERMALP
 70
64
 10
0.0000
 20
0.0000
 30
0.0000
  3
THERMALP
  0
LINE
  8
0
 10
-0.2379
 20
0.4500
 30
0.0000
 11
0.2379
 21
0.4500
 31
0.0000
  0
LINE
  8
0
 10
0.4500
 20
0.2379
 30
0.0000
 11
0.4500
 21
-0.2379
 31
0.0000
  0
LINE
  8
0
 10
0.2379
 20
-0.4500
 30
0.0000
 11
-0.2379
 21
-0.4500
 31
0.0000
  0
LINE
  8
0
 10
-0.4500
 20
-0.2379
 30
0.0000
 11
-0.4500
 21
0.2379
 31
0.0000
  0
ENDBLK
  8
0
  0
BLOCK
  8
0
  2
OCTAGONV
 70
64
 10
0.0000
 20
0.0000
 30
0.0000
  3
OCTAGONV
  0
POLYLINE
  8
0
 66
1
 10
0.0000
 20
0.0000
 30
0.0000
 40
0.0000
 41
0.0000
 70
1
  0
VERTEX
  8
0
 10
-0.5000
 20
-0.2071
 30
0.0000
  0
VERTEX
  8
0
 10
-0.5000
 20
0.2071
 30
0.0000
  0
VERTEX
  8
0
 10
-0.2071
 20
0.5000
 30
0.0000
  0
VERTEX
  8
0
 10
0.2071
 20
0.5000
 30
0.0000
  0
VERTEX
  8
0
 10
0.5000
 20
0.2071
 30
0.0000
  0
VERTEX
  8
0
 10
0.5000
 20
-0.2071
 30
0.0000
  0
VERTEX
  8
0
 10
0.2071
 20
-0.5000
 30
0.0000
  0
VERTEX
  8
0
 10
-0.2071
 20
-0.5000
 30
0.0000
  0
SEQEND
  8
0
  0
ENDBLK
  8
0
  0
BLOCK
  8
0
  2
SQUAREV
 70
64
 10
0.0000
 20
0.0000
 30
0.0000
  3
SQUAREV
  0
SOLID
  8
0
 10
-0.5000
 20
-0.5000
 30
0.0000
 11
0.5000
 21
-0.5000
 31
0.0000
 12
-0.5000
 22
0.5000
 32
0.0000
 13
0.5000
 23
0.5000
 33
0.0000
  0
ENDBLK
  8
0
  0
BLOCK
  8
0
  2
ROUNDV
 70
64
 10
0.0000
 20
0.0000
 30
0.0000
  3
ROUNDV
  0
CIRCLE
  8
0
 10
0.0000
 20
0.0000
 30
0.0000
 40
0.5000
  0
ENDBLK
  8
0
  0
BLOCK
  8
0
  2
ANNULUSV
 70
64
 10
0.0000
 20
0.0000
 30
0.0000
  3
ANNULUSV
  0
CIRCLE
  8
0
 10
0.0000
 20
0.0000
 30
0.0000
 40
0.5000
  0
ENDBLK
  8
0
  0
BLOCK
  8
0
  2
THERMALV
 70
64
 10
0.0000
 20
0.0000
 30
0.0000
  3
THERMALV
  0
LINE
  8
0
 10
-0.2379
 20
0.4500
 30
0.0000
 11
0.2379
 21
0.4500
 31
0.0000
  0
LINE
  8
0
 10
0.4500
 20
0.2379
 30
0.0000
 11
0.4500
 21
-0.2379
 31
0.0000
  0
LINE
  8
0
 10
0.2379
 20
-0.4500
 30
0.0000
 11
-0.2379
 21
-0.4500
 31
0.0000
  0
LINE
  8
0
 10
-0.4500
 20
-0.2379
 30
0.0000
 11
-0.4500
 21
0.2379
 31
0.0000
  0
ENDBLK
  8
0
  0
BLOCK
  8
0
  2
LONGP100
 70
64
 10
0.0000
 20
0.0000
 30
0.0000
  3
LONGP100
  0
POLYLINE
  8
0
 66
1
 10
0.0000
 20
0.0000
 30
0.0000
 40
0.0000
 41
0.0000
 70
1
  0
VERTEX
  8
0
 10
-0.5000
 20
-0.5000
 30
0.0000
  0
VERTEX
  8
0
 10
0.5000
 20
-0.5000
 30
0.0000
 42
1.0000
  0
VERTEX
  8
0
 10
0.5000
 20
0.5000
 30
0.0000
  0
VERTEX
  8
0
 10
-0.5000
 20
0.5000
 30
0.0000
 42
1.0000
  0
SEQEND
  8
0
  0
ENDBLK
  8
0
  0
ENDSEC
  0
SECTION
  2
ENTITIES
  0
LINE
  8
20
 10
1.7000
 20
18.9500
 30
0.0000
 11
22.0200
 21
18.9500
 31
0.0000
  0
ARC
  8
20
 10
22.0200
 20
17.7200
 30
0.0000
 40
1.2300
 50
0.0000
 51
90.0000
  0
LINE
  8
20
 10
23.2500
 20
17.7200
 30
0.0000
 11
23.2500
 21
2.4800
 31
0.0000
  0
ARC
  8
20
 10
22.0200
 20
2.4800
 30
0.0000
 40
1.2300
 50
270.0000
 51
0.0000
  0
LINE
  8
20
 10
22.0200
 20
1.2500
 30
0.0000
 11
1.7000
 21
1.2500
 31
0.0000
  0
ARC
  8
20
 10
1.7000
 20
2.4800
 30
0.0000
 40
1.2300
 50
180.0000
 51
270.0000
  0
LINE
  8
20
 10
0.4700
 20
2.4800
 30
0.0000
 11
0.4700
 21
17.7200
 31
0.0000
  0
ARC
  8
20
 10
1.7000
 20
17.7200
 30
0.0000
 40
1.2300
 50
90.0000
 51
180.0000
  0
LINE
  8
22
 10
22.1079
 20
16.3586
 30
0.0000
 11
22.2620
 21
16.5127
 31
0.0000
  0
LINE
  8
22
 10
22.2620
 20
16.5127
 30
0.0000
 11
22.5702
 21
16.5127
 31
0.0000
  0
LINE
  8
22
 10
22.5702
 20
16.5127
 30
0.0000
 11
22.7243
 21
16.3586
 31
0.0000
  0
LINE
  8
22
 10
22.7243
 20
16.3586
 30
0.0000
 11
22.7243
 21
15.7422
 31
0.0000
  0
LINE
  8
22
 10
22.7243
 20
15.7422
 30
0.0000
 11
22.5702
 21
15.5881
 31
0.0000
  0
LINE
  8
22
 10
22.5702
 20
15.5881
 30
0.0000
 11
22.2620
 21
15.5881
 31
0.0000
  0
LINE
  8
22
 10
22.2620
 20
15.5881
 30
0.0000
 11
22.1079
 21
15.7422
 31
0.0000
  0
LINE
  8
22
 10
22.1079
 20
15.7422
 30
0.0000
 11
22.1079
 21
16.0504
 31
0.0000
  0
LINE
  8
22
 10
22.1079
 20
16.0504
 30
0.0000
 11
22.4161
 21
16.0504
 31
0.0000
  0
LINE
  8
22
 10
21.8035
 20
15.5881
 30
0.0000
 11
21.8035
 21
16.5127
 31
0.0000
  0
LINE
  8
22
 10
21.8035
 20
16.5127
 30
0.0000
 11
21.1871
 21
15.5881
 31
0.0000
  0
LINE
  8
22
 10
21.1871
 20
15.5881
 30
0.0000
 11
21.1871
 21
16.5127
 31
0.0000
  0
LINE
  8
22
 10
20.8827
 20
16.5127
 30
0.0000
 11
20.8827
 21
15.5881
 31
0.0000
  0
LINE
  8
22
 10
20.8827
 20
15.5881
 30
0.0000
 11
20.4204
 21
15.5881
 31
0.0000
  0
LINE
  8
22
 10
20.4204
 20
15.5881
 30
0.0000
 11
20.2663
 21
15.7422
 31
0.0000
  0
LINE
  8
22
 10
20.2663
 20
15.7422
 30
0.0000
 11
20.2663
 21
16.3586
 31
0.0000
  0
LINE
  8
22
 10
20.2663
 20
16.3586
 30
0.0000
 11
20.4204
 21
16.5127
 31
0.0000
  0
LINE
  8
22
 10
20.4204
 20
16.5127
 30
0.0000
 11
20.8827
 21
16.5127
 31
0.0000
  0
LINE
  8
22
 10
18.6119
 20
16.8795
 30
0.0000
 11
18.3037
 21
17.1877
 31
0.0000
  0
LINE
  8
22
 10
18.3037
 20
17.1877
 30
0.0000
 11
18.3037
 21
16.2631
 31
0.0000
  0
LINE
  8
22
 10
18.6119
 20
16.2631
 30
0.0000
 11
17.9955
 21
16.2631
 31
0.0000
  0
LINE
  8
22
 10
16.6955
 20
15.6631
 30
0.0000
 11
17.3119
 21
15.6631
 31
0.0000
  0
LINE
  8
22
 10
17.3119
 20
15.6631
 30
0.0000
 11
16.6955
 21
16.2795
 31
0.0000
  0
LINE
  8
22
 10
16.6955
 20
16.2795
 30
0.0000
 11
16.6955
 21
16.4336
 31
0.0000
  0
LINE
  8
22
 10
16.6955
 20
16.4336
 30
0.0000
 11
16.8496
 21
16.5877
 31
0.0000
  0
LINE
  8
22
 10
16.8496
 20
16.5877
 30
0.0000
 11
17.1578
 21
16.5877
 31
0.0000
  0
LINE
  8
22
 10
17.1578
 20
16.5877
 30
0.0000
 11
17.3119
 21
16.4336
 31
0.0000
  0
LINE
  8
22
 10
14.7369
 20
16.4586
 30
0.0000
 11
14.5828
 21
16.6127
 31
0.0000
  0
LINE
  8
22
 10
14.5828
 20
16.6127
 30
0.0000
 11
14.2746
 21
16.6127
 31
0.0000
  0
LINE
  8
22
 10
14.2746
 20
16.6127
 30
0.0000
 11
14.1205
 21
16.4586
 31
0.0000
  0
LINE
  8
22
 10
14.1205
 20
16.4586
 30
0.0000
 11
14.1205
 21
16.3045
 31
0.0000
  0
LINE
  8
22
 10
14.1205
 20
16.3045
 30
0.0000
 11
14.2746
 21
16.1504
 31
0.0000
  0
LINE
  8
22
 10
14.2746
 20
16.1504
 30
0.0000
 11
14.4287
 21
16.1504
 31
0.0000
  0
LINE
  8
22
 10
14.2746
 20
16.1504
 30
0.0000
 11
14.1205
 21
15.9963
 31
0.0000
  0
LINE
  8
22
 10
14.1205
 20
15.9963
 30
0.0000
 11
14.1205
 21
15.8422
 31
0.0000
  0
LINE
  8
22
 10
14.1205
 20
15.8422
 30
0.0000
 11
14.2746
 21
15.6881
 31
0.0000
  0
LINE
  8
22
 10
14.2746
 20
15.6881
 30
0.0000
 11
14.5828
 21
15.6881
 31
0.0000
  0
LINE
  8
22
 10
14.5828
 20
15.6881
 30
0.0000
 11
14.7369
 21
15.8422
 31
0.0000
  0
LINE
  8
22
 10
11.8996
 20
15.6881
 30
0.0000
 11
11.8996
 21
16.6127
 31
0.0000
  0
LINE
  8
22
 10
11.8996
 20
16.6127
 30
0.0000
 11
12.3619
 21
16.1504
 31
0.0000
  0
LINE
  8
22
 10
12.3619
 20
16.1504
 30
0.0000
 11
11.7455
 21
16.1504
 31
0.0000
  0
LINE
  8
22
 10
9.0705
 20
16.6377
 30
0.0000
 11
9.6869
 21
16.6377
 31
0.0000
  0
LINE
  8
22
 10
9.6869
 20
16.6377
 30
0.0000
 11
9.6869
 21
16.1754
 31
0.0000
  0
LINE
  8
22
 10
9.6869
 20
16.1754
 30
0.0000
 11
9.3787
 21
16.3295
 31
0.0000
  0
LINE
  8
22
 10
9.3787
 20
16.3295
 30
0.0000
 11
9.2246
 21
16.3295
 31
0.0000
  0
LINE
  8
22
 10
9.2246
 20
16.3295
 30
0.0000
 11
9.0705
 21
16.1754
 31
0.0000
  0
LINE
  8
22
 10
9.0705
 20
16.1754
 30
0.0000
 11
9.0705
 21
15.8672
 31
0.0000
  0
LINE
  8
22
 10
9.0705
 20
15.8672
 30
0.0000
 11
9.2246
 21
15.7131
 31
0.0000
  0
LINE
  8
22
 10
9.2246
 20
15.7131
 30
0.0000
 11
9.5328
 21
15.7131
 31
0.0000
  0
LINE
  8
22
 10
9.5328
 20
15.7131
 30
0.0000
 11
9.6869
 21
15.8672
 31
0.0000
  0
LINE
  8
22
 10
6.5205
 20
16.6127
 30
0.0000
 11
6.8287
 21
16.4586
 31
0.0000
  0
LINE
  8
22
 10
6.8287
 20
16.4586
 30
0.0000
 11
7.1369
 21
16.1504
 31
0.0000
  0
LINE
  8
22
 10
7.1369
 20
16.1504
 30
0.0000
 11
7.1369
 21
15.8422
 31
0.0000
  0
LINE
  8
22
 10
7.1369
 20
15.8422
 30
0.0000
 11
6.9828
 21
15.6881
 31
0.0000
  0
LINE
  8
22
 10
6.9828
 20
15.6881
 30
0.0000
 11
6.6746
 21
15.6881
 31
0.0000
  0
LINE
  8
22
 10
6.6746
 20
15.6881
 30
0.0000
 11
6.5205
 21
15.8422
 31
0.0000
  0
LINE
  8
22
 10
6.5205
 20
15.8422
 30
0.0000
 11
6.5205
 21
15.9963
 31
0.0000
  0
LINE
  8
22
 10
6.5205
 20
15.9963
 30
0.0000
 11
6.6746
 21
16.1504
 31
0.0000
  0
LINE
  8
22
 10
6.6746
 20
16.1504
 30
0.0000
 11
7.1369
 21
16.1504
 31
0.0000
  0
LINE
  8
22
 10
4.5869
 20
16.6127
 30
0.0000
 11
3.9705
 21
16.6127
 31
0.0000
  0
LINE
  8
22
 10
3.9705
 20
16.6127
 30
0.0000
 11
3.9705
 21
16.4586
 31
0.0000
  0
LINE
  8
22
 10
3.9705
 20
16.4586
 30
0.0000
 11
4.5869
 21
15.8422
 31
0.0000
  0
LINE
  8
22
 10
4.5869
 20
15.8422
 30
0.0000
 11
4.5869
 21
15.6881
 31
0.0000
  0
LINE
  8
22
 10
2.9619
 20
16.8086
 30
0.0000
 11
2.8078
 21
16.9627
 31
0.0000
  0
LINE
  8
22
 10
2.8078
 20
16.9627
 30
0.0000
 11
2.4996
 21
16.9627
 31
0.0000
  0
LINE
  8
22
 10
2.4996
 20
16.9627
 30
0.0000
 11
2.3455
 21
16.8086
 31
0.0000
  0
LINE
  8
22
 10
2.3455
 20
16.8086
 30
0.0000
 11
2.3455
 21
16.6545
 31
0.0000
  0
LINE
  8
22
 10
2.3455
 20
16.6545
 30
0.0000
 11
2.4996
 21
16.5004
 31
0.0000
  0
LINE
  8
22
 10
2.4996
 20
16.5004
 30
0.0000
 11
2.3455
 21
16.3463
 31
0.0000
  0
LINE
  8
22
 10
2.3455
 20
16.3463
 30
0.0000
 11
2.3455
 21
16.1922
 31
0.0000
  0
LINE
  8
22
 10
2.3455
 20
16.1922
 30
0.0000
 11
2.4996
 21
16.0381
 31
0.0000
  0
LINE
  8
22
 10
2.4996
 20
16.0381
 30
0.0000
 11
2.8078
 21
16.0381
 31
0.0000
  0
LINE
  8
22
 10
2.8078
 20
16.0381
 30
0.0000
 11
2.9619
 21
16.1922
 31
0.0000
  0
LINE
  8
22
 10
2.9619
 20
16.1922
 30
0.0000
 11
2.9619
 21
16.3463
 31
0.0000
  0
LINE
  8
22
 10
2.9619
 20
16.3463
 30
0.0000
 11
2.8078
 21
16.5004
 31
0.0000
  0
LINE
  8
22
 10
2.8078
 20
16.5004
 30
0.0000
 11
2.9619
 21
16.6545
 31
0.0000
  0
LINE
  8
22
 10
2.9619
 20
16.6545
 30
0.0000
 11
2.9619
 21
16.8086
 31
0.0000
  0
LINE
  8
22
 10
2.8078
 20
16.5004
 30
0.0000
 11
2.4996
 21
16.5004
 31
0.0000
  0
LINE
  8
22
 10
3.4369
 20
14.8922
 30
0.0000
 11
3.2828
 21
14.7381
 31
0.0000
  0
LINE
  8
22
 10
3.2828
 20
14.7381
 30
0.0000
 11
2.9746
 21
14.7381
 31
0.0000
  0
LINE
  8
22
 10
2.9746
 20
14.7381
 30
0.0000
 11
2.8205
 21
14.8922
 31
0.0000
  0
LINE
  8
22
 10
2.8205
 20
14.8922
 30
0.0000
 11
2.8205
 21
15.5086
 31
0.0000
  0
LINE
  8
22
 10
2.8205
 20
15.5086
 30
0.0000
 11
2.9746
 21
15.6627
 31
0.0000
  0
LINE
  8
22
 10
2.9746
 20
15.6627
 30
0.0000
 11
3.2828
 21
15.6627
 31
0.0000
  0
LINE
  8
22
 10
3.2828
 20
15.6627
 30
0.0000
 11
3.4369
 21
15.5086
 31
0.0000
  0
LINE
  8
22
 10
3.4369
 20
15.5086
 30
0.0000
 11
3.4369
 21
15.3545
 31
0.0000
  0
LINE
  8
22
 10
3.4369
 20
15.3545
 30
0.0000
 11
3.2828
 21
15.2004
 31
0.0000
  0
LINE
  8
22
 10
3.2828
 20
15.2004
 30
0.0000
 11
2.8205
 21
15.2004
 31
0.0000
  0
LINE
  8
22
 10
4.3369
 20
12.7795
 30
0.0000
 11
4.0287
 21
13.0877
 31
0.0000
  0
LINE
  8
22
 10
4.0287
 20
13.0877
 30
0.0000
 11
4.0287
 21
12.1631
 31
0.0000
  0
LINE
  8
22
 10
4.3369
 20
12.1631
 30
0.0000
 11
3.7205
 21
12.1631
 31
0.0000
  0
LINE
  8
22
 10
3.4161
 20
12.3172
 30
0.0000
 11
3.4161
 21
12.9336
 31
0.0000
  0
LINE
  8
22
 10
3.4161
 20
12.9336
 30
0.0000
 11
3.2620
 21
13.0877
 31
0.0000
  0
LINE
  8
22
 10
3.2620
 20
13.0877
 30
0.0000
 11
2.9538
 21
13.0877
 31
0.0000
  0
LINE
  8
22
 10
2.9538
 20
13.0877
 30
0.0000
 11
2.7997
 21
12.9336
 31
0.0000
  0
LINE
  8
22
 10
2.7997
 20
12.9336
 30
0.0000
 11
2.7997
 21
12.3172
 31
0.0000
  0
LINE
  8
22
 10
2.7997
 20
12.3172
 30
0.0000
 11
2.9538
 21
12.1631
 31
0.0000
  0
LINE
  8
22
 10
2.9538
 20
12.1631
 30
0.0000
 11
3.2620
 21
12.1631
 31
0.0000
  0
LINE
  8
22
 10
3.2620
 20
12.1631
 30
0.0000
 11
3.4161
 21
12.3172
 31
0.0000
  0
LINE
  8
22
 10
3.4161
 20
12.3172
 30
0.0000
 11
2.7997
 21
12.9336
 31
0.0000
  0
LINE
  8
22
 10
4.2119
 20
10.2045
 30
0.0000
 11
3.9037
 21
10.5127
 31
0.0000
  0
LINE
  8
22
 10
3.9037
 20
10.5127
 30
0.0000
 11
3.9037
 21
9.5881
 31
0.0000
  0
LINE
  8
22
 10
4.2119
 20
9.5881
 30
0.0000
 11
3.5955
 21
9.5881
 31
0.0000
  0
LINE
  8
22
 10
3.2911
 20
10.2045
 30
0.0000
 11
2.9829
 21
10.5127
 31
0.0000
  0
LINE
  8
22
 10
2.9829
 20
10.5127
 30
0.0000
 11
2.9829
 21
9.5881
 31
0.0000
  0
LINE
  8
22
 10
3.2911
 20
9.5881
 30
0.0000
 11
2.6747
 21
9.5881
 31
0.0000
  0
LINE
  8
22
 10
4.3119
 20
7.7545
 30
0.0000
 11
4.0037
 21
8.0627
 31
0.0000
  0
LINE
  8
22
 10
4.0037
 20
8.0627
 30
0.0000
 11
4.0037
 21
7.1381
 31
0.0000
  0
LINE
  8
22
 10
4.3119
 20
7.1381
 30
0.0000
 11
3.6955
 21
7.1381
 31
0.0000
  0
LINE
  8
22
 10
2.7747
 20
7.1381
 30
0.0000
 11
3.3911
 21
7.1381
 31
0.0000
  0
LINE
  8
22
 10
3.3911
 20
7.1381
 30
0.0000
 11
2.7747
 21
7.7545
 31
0.0000
  0
LINE
  8
22
 10
2.7747
 20
7.7545
 30
0.0000
 11
2.7747
 21
7.9086
 31
0.0000
  0
LINE
  8
22
 10
2.7747
 20
7.9086
 30
0.0000
 11
2.9288
 21
8.0627
 31
0.0000
  0
LINE
  8
22
 10
2.9288
 20
8.0627
 30
0.0000
 11
3.2370
 21
8.0627
 31
0.0000
  0
LINE
  8
22
 10
3.2370
 20
8.0627
 30
0.0000
 11
3.3911
 21
7.9086
 31
0.0000
  0
LINE
  8
22
 10
3.6869
 20
3.9295
 30
0.0000
 11
3.3787
 21
4.2377
 31
0.0000
  0
LINE
  8
22
 10
3.3787
 20
4.2377
 30
0.0000
 11
3.3787
 21
3.3131
 31
0.0000
  0
LINE
  8
22
 10
3.6869
 20
3.3131
 30
0.0000
 11
3.0705
 21
3.3131
 31
0.0000
  0
LINE
  8
22
 10
2.3038
 20
3.3131
 30
0.0000
 11
2.3038
 21
4.2377
 31
0.0000
  0
LINE
  8
22
 10
2.3038
 20
4.2377
 30
0.0000
 11
2.7661
 21
3.7754
 31
0.0000
  0
LINE
  8
22
 10
2.7661
 20
3.7754
 30
0.0000
 11
2.1497
 21
3.7754
 31
0.0000
  0
LINE
  8
22
 10
5.4119
 20
4.3045
 30
0.0000
 11
5.1037
 21
4.6127
 31
0.0000
  0
LINE
  8
22
 10
5.1037
 20
4.6127
 30
0.0000
 11
5.1037
 21
3.6881
 31
0.0000
  0
LINE
  8
22
 10
5.4119
 20
3.6881
 30
0.0000
 11
4.7955
 21
3.6881
 31
0.0000
  0
LINE
  8
22
 10
3.8747
 20
4.6127
 30
0.0000
 11
4.4911
 21
4.6127
 31
0.0000
  0
LINE
  8
22
 10
4.4911
 20
4.6127
 30
0.0000
 11
4.4911
 21
4.1504
 31
0.0000
  0
LINE
  8
22
 10
4.4911
 20
4.1504
 30
0.0000
 11
4.1829
 21
4.3045
 31
0.0000
  0
LINE
  8
22
 10
4.1829
 20
4.3045
 30
0.0000
 11
4.0288
 21
4.3045
 31
0.0000
  0
LINE
  8
22
 10
4.0288
 20
4.3045
 30
0.0000
 11
3.8747
 21
4.1504
 31
0.0000
  0
LINE
  8
22
 10
3.8747
 20
4.1504
 30
0.0000
 11
3.8747
 21
3.8422
 31
0.0000
  0
LINE
  8
22
 10
3.8747
 20
3.8422
 30
0.0000
 11
4.0288
 21
3.6881
 31
0.0000
  0
LINE
  8
22
 10
4.0288
 20
3.6881
 30
0.0000
 11
4.3370
 21
3.6881
 31
0.0000
  0
LINE
  8
22
 10
4.3370
 20
3.6881
 30
0.0000
 11
4.4911
 21
3.8422
 31
0.0000
  0
LINE
  8
22
 10
7.6827
 20
4.2545
 30
0.0000
 11
7.3745
 21
4.5627
 31
0.0000
  0
LINE
  8
22
 10
7.3745
 20
4.5627
 30
0.0000
 11
7.3745
 21
3.6381
 31
0.0000
  0
LINE
  8
22
 10
7.6827
 20
3.6381
 30
0.0000
 11
7.0663
 21
3.6381
 31
0.0000
  0
LINE
  8
22
 10
6.1455
 20
4.5627
 30
0.0000
 11
6.4537
 21
4.4086
 31
0.0000
  0
LINE
  8
22
 10
6.4537
 20
4.4086
 30
0.0000
 11
6.7619
 21
4.1004
 31
0.0000
  0
LINE
  8
22
 10
6.7619
 20
4.1004
 30
0.0000
 11
6.7619
 21
3.7922
 31
0.0000
  0
LINE
  8
22
 10
6.7619
 20
3.7922
 30
0.0000
 11
6.6078
 21
3.6381
 31
0.0000
  0
LINE
  8
22
 10
6.6078
 20
3.6381
 30
0.0000
 11
6.2996
 21
3.6381
 31
0.0000
  0
LINE
  8
22
 10
6.2996
 20
3.6381
 30
0.0000
 11
6.1455
 21
3.7922
 31
0.0000
  0
LINE
  8
22
 10
6.1455
 20
3.7922
 30
0.0000
 11
6.1455
 21
3.9463
 31
0.0000
  0
LINE
  8
22
 10
6.1455
 20
3.9463
 30
0.0000
 11
6.2996
 21
4.1004
 31
0.0000
  0
LINE
  8
22
 10
6.2996
 20
4.1004
 30
0.0000
 11
6.7619
 21
4.1004
 31
0.0000
  0
LINE
  8
22
 10
10.2077
 20
4.2545
 30
0.0000
 11
9.8995
 21
4.5627
 31
0.0000
  0
LINE
  8
22
 10
9.8995
 20
4.5627
 30
0.0000
 11
9.8995
 21
3.6381
 31
0.0000
  0
LINE
  8
22
 10
10.2077
 20
3.6381
 30
0.0000
 11
9.5913
 21
3.6381
 31
0.0000
  0
LINE
  8
22
 10
9.2869
 20
4.5627
 30
0.0000
 11
8.6705
 21
4.5627
 31
0.0000
  0
LINE
  8
22
 10
8.6705
 20
4.5627
 30
0.0000
 11
8.6705
 21
4.4086
 31
0.0000
  0
LINE
  8
22
 10
8.6705
 20
4.4086
 30
0.0000
 11
9.2869
 21
3.7922
 31
0.0000
  0
LINE
  8
22
 10
9.2869
 20
3.7922
 30
0.0000
 11
9.2869
 21
3.6381
 31
0.0000
  0
LINE
  8
22
 10
12.7327
 20
4.2545
 30
0.0000
 11
12.4245
 21
4.5627
 31
0.0000
  0
LINE
  8
22
 10
12.4245
 20
4.5627
 30
0.0000
 11
12.4245
 21
3.6381
 31
0.0000
  0
LINE
  8
22
 10
12.7327
 20
3.6381
 30
0.0000
 11
12.1163
 21
3.6381
 31
0.0000
  0
LINE
  8
22
 10
11.8119
 20
4.4086
 30
0.0000
 11
11.6578
 21
4.5627
 31
0.0000
  0
LINE
  8
22
 10
11.6578
 20
4.5627
 30
0.0000
 11
11.3496
 21
4.5627
 31
0.0000
  0
LINE
  8
22
 10
11.3496
 20
4.5627
 30
0.0000
 11
11.1955
 21
4.4086
 31
0.0000
  0
LINE
  8
22
 10
11.1955
 20
4.4086
 30
0.0000
 11
11.1955
 21
4.2545
 31
0.0000
  0
LINE
  8
22
 10
11.1955
 20
4.2545
 30
0.0000
 11
11.3496
 21
4.1004
 31
0.0000
  0
LINE
  8
22
 10
11.3496
 20
4.1004
 30
0.0000
 11
11.1955
 21
3.9463
 31
0.0000
  0
LINE
  8
22
 10
11.1955
 20
3.9463
 30
0.0000
 11
11.1955
 21
3.7922
 31
0.0000
  0
LINE
  8
22
 10
11.1955
 20
3.7922
 30
0.0000
 11
11.3496
 21
3.6381
 31
0.0000
  0
LINE
  8
22
 10
11.3496
 20
3.6381
 30
0.0000
 11
11.6578
 21
3.6381
 31
0.0000
  0
LINE
  8
22
 10
11.6578
 20
3.6381
 30
0.0000
 11
11.8119
 21
3.7922
 31
0.0000
  0
LINE
  8
22
 10
11.8119
 20
3.7922
 30
0.0000
 11
11.8119
 21
3.9463
 31
0.0000
  0
LINE
  8
22
 10
11.8119
 20
3.9463
 30
0.0000
 11
11.6578
 21
4.1004
 31
0.0000
  0
LINE
  8
22
 10
11.6578
 20
4.1004
 30
0.0000
 11
11.8119
 21
4.2545
 31
0.0000
  0
LINE
  8
22
 10
11.8119
 20
4.2545
 30
0.0000
 11
11.8119
 21
4.4086
 31
0.0000
  0
LINE
  8
22
 10
11.6578
 20
4.1004
 30
0.0000
 11
11.3496
 21
4.1004
 31
0.0000
  0
LINE
  8
22
 10
15.2827
 20
4.2545
 30
0.0000
 11
14.9745
 21
4.5627
 31
0.0000
  0
LINE
  8
22
 10
14.9745
 20
4.5627
 30
0.0000
 11
14.9745
 21
3.6381
 31
0.0000
  0
LINE
  8
22
 10
15.2827
 20
3.6381
 30
0.0000
 11
14.6663
 21
3.6381
 31
0.0000
  0
LINE
  8
22
 10
14.3619
 20
3.7922
 30
0.0000
 11
14.2078
 21
3.6381
 31
0.0000
  0
LINE
  8
22
 10
14.2078
 20
3.6381
 30
0.0000
 11
13.8996
 21
3.6381
 31
0.0000
  0
LINE
  8
22
 10
13.8996
 20
3.6381
 30
0.0000
 11
13.7455
 21
3.7922
 31
0.0000
  0
LINE
  8
22
 10
13.7455
 20
3.7922
 30
0.0000
 11
13.7455
 21
4.4086
 31
0.0000
  0
LINE
  8
22
 10
13.7455
 20
4.4086
 30
0.0000
 11
13.8996
 21
4.5627
 31
0.0000
  0
LINE
  8
22
 10
13.8996
 20
4.5627
 30
0.0000
 11
14.2078
 21
4.5627
 31
0.0000
  0
LINE
  8
22
 10
14.2078
 20
4.5627
 30
0.0000
 11
14.3619
 21
4.4086
 31
0.0000
  0
LINE
  8
22
 10
14.3619
 20
4.4086
 30
0.0000
 11
14.3619
 21
4.2545
 31
0.0000
  0
LINE
  8
22
 10
14.3619
 20
4.2545
 30
0.0000
 11
14.2078
 21
4.1004
 31
0.0000
  0
LINE
  8
22
 10
14.2078
 20
4.1004
 30
0.0000
 11
13.7455
 21
4.1004
 31
0.0000
  0
LINE
  8
22
 10
17.2163
 20
3.6381
 30
0.0000
 11
17.8327
 21
3.6381
 31
0.0000
  0
LINE
  8
22
 10
17.8327
 20
3.6381
 30
0.0000
 11
17.2163
 21
4.2545
 31
0.0000
  0
LINE
  8
22
 10
17.2163
 20
4.2545
 30
0.0000
 11
17.2163
 21
4.4086
 31
0.0000
  0
LINE
  8
22
 10
17.2163
 20
4.4086
 30
0.0000
 11
17.3704
 21
4.5627
 31
0.0000
  0
LINE
  8
22
 10
17.3704
 20
4.5627
 30
0.0000
 11
17.6786
 21
4.5627
 31
0.0000
  0
LINE
  8
22
 10
17.6786
 20
4.5627
 30
0.0000
 11
17.8327
 21
4.4086
 31
0.0000
  0
LINE
  8
22
 10
16.9119
 20
3.7922
 30
0.0000
 11
16.9119
 21
4.4086
 31
0.0000
  0
LINE
  8
22
 10
16.9119
 20
4.4086
 30
0.0000
 11
16.7578
 21
4.5627
 31
0.0000
  0
LINE
  8
22
 10
16.7578
 20
4.5627
 30
0.0000
 11
16.4496
 21
4.5627
 31
0.0000
  0
LINE
  8
22
 10
16.4496
 20
4.5627
 30
0.0000
 11
16.2955
 21
4.4086
 31
0.0000
  0
LINE
  8
22
 10
16.2955
 20
4.4086
 30
0.0000
 11
16.2955
 21
3.7922
 31
0.0000
  0
LINE
  8
22
 10
16.2955
 20
3.7922
 30
0.0000
 11
16.4496
 21
3.6381
 31
0.0000
  0
LINE
  8
22
 10
16.4496
 20
3.6381
 30
0.0000
 11
16.7578
 21
3.6381
 31
0.0000
  0
LINE
  8
22
 10
16.7578
 20
3.6381
 30
0.0000
 11
16.9119
 21
3.7922
 31
0.0000
  0
LINE
  8
22
 10
16.9119
 20
3.7922
 30
0.0000
 11
16.2955
 21
4.4086
 31
0.0000
  0
LINE
  8
22
 10
19.8973
 20
3.6381
 30
0.0000
 11
19.8973
 21
4.2545
 31
0.0000
  0
LINE
  8
22
 10
19.8973
 20
4.2545
 30
0.0000
 11
19.5891
 21
4.5627
 31
0.0000
  0
LINE
  8
22
 10
19.5891
 20
4.5627
 30
0.0000
 11
19.2809
 21
4.2545
 31
0.0000
  0
LINE
  8
22
 10
19.2809
 20
4.2545
 30
0.0000
 11
19.2809
 21
3.6381
 31
0.0000
  0
LINE
  8
22
 10
19.8973
 20
4.1004
 30
0.0000
 11
19.2809
 21
4.1004
 31
0.0000
  0
LINE
  8
22
 10
22.1455
 20
4.5627
 30
0.0000
 11
22.7619
 21
4.5627
 31
0.0000
  0
LINE
  8
22
 10
22.7619
 20
4.5627
 30
0.0000
 11
22.7619
 21
4.1004
 31
0.0000
  0
LINE
  8
22
 10
22.7619
 20
4.1004
 30
0.0000
 11
22.4537
 21
4.2545
 31
0.0000
  0
LINE
  8
22
 10
22.4537
 20
4.2545
 30
0.0000
 11
22.2996
 21
4.2545
 31
0.0000
  0
LINE
  8
22
 10
22.2996
 20
4.2545
 30
0.0000
 11
22.1455
 21
4.1004
 31
0.0000
  0
LINE
  8
22
 10
22.1455
 20
4.1004
 30
0.0000
 11
22.1455
 21
3.7922
 31
0.0000
  0
LINE
  8
22
 10
22.1455
 20
3.7922
 30
0.0000
 11
22.2996
 21
3.6381
 31
0.0000
  0
LINE
  8
22
 10
22.2996
 20
3.6381
 30
0.0000
 11
22.6078
 21
3.6381
 31
0.0000
  0
LINE
  8
22
 10
22.6078
 20
3.6381
 30
0.0000
 11
22.7619
 21
3.7922
 31
0.0000
  0
LINE
  8
22
 10
21.8411
 20
4.2545
 30
0.0000
 11
21.5329
 21
3.6381
 31
0.0000
  0
LINE
  8
22
 10
21.5329
 20
3.6381
 30
0.0000
 11
21.2247
 21
4.2545
 31
0.0000
  0
LINE
  8
22
 10
4.3369
 20
5.5295
 30
0.0000
 11
4.0287
 21
5.8377
 31
0.0000
  0
LINE
  8
22
 10
4.0287
 20
5.8377
 30
0.0000
 11
4.0287
 21
4.9131
 31
0.0000
  0
LINE
  8
22
 10
4.3369
 20
4.9131
 30
0.0000
 11
3.7205
 21
4.9131
 31
0.0000
  0
LINE
  8
22
 10
3.4161
 20
5.6836
 30
0.0000
 11
3.2620
 21
5.8377
 31
0.0000
  0
LINE
  8
22
 10
3.2620
 20
5.8377
 30
0.0000
 11
2.9538
 21
5.8377
 31
0.0000
  0
LINE
  8
22
 10
2.9538
 20
5.8377
 30
0.0000
 11
2.7997
 21
5.6836
 31
0.0000
  0
LINE
  8
22
 10
2.7997
 20
5.6836
 30
0.0000
 11
2.7997
 21
5.5295
 31
0.0000
  0
LINE
  8
22
 10
2.7997
 20
5.5295
 30
0.0000
 11
2.9538
 21
5.3754
 31
0.0000
  0
LINE
  8
22
 10
2.9538
 20
5.3754
 30
0.0000
 11
3.1079
 21
5.3754
 31
0.0000
  0
LINE
  8
22
 10
2.9538
 20
5.3754
 30
0.0000
 11
2.7997
 21
5.2213
 31
0.0000
  0
LINE
  8
22
 10
2.7997
 20
5.2213
 30
0.0000
 11
2.7997
 21
5.0672
 31
0.0000
  0
LINE
  8
22
 10
2.7997
 20
5.0672
 30
0.0000
 11
2.9538
 21
4.9131
 31
0.0000
  0
LINE
  8
22
 10
2.9538
 20
4.9131
 30
0.0000
 11
3.2620
 21
4.9131
 31
0.0000
  0
LINE
  8
22
 10
3.2620
 20
4.9131
 30
0.0000
 11
3.4161
 21
5.0672
 31
0.0000
  0
LINE
  8
21
 10
6.4007
 20
14.1255
 30
0.0000
 11
6.4007
 21
13.7257
 31
0.0000
  0
LINE
  8
21
 10
6.4007
 20
13.7257
 30
0.0000
 11
6.6006
 21
13.5258
 31
0.0000
  0
LINE
  8
21
 10
6.6006
 20
13.5258
 30
0.0000
 11
6.8005
 21
13.5258
 31
0.0000
  0
LINE
  8
21
 10
6.8005
 20
13.5258
 30
0.0000
 11
7.0004
 21
13.7257
 31
0.0000
  0
LINE
  8
21
 10
7.0004
 20
13.7257
 30
0.0000
 11
7.0004
 21
14.1255
 31
0.0000
  0
LINE
  8
21
 10
6.4007
 20
13.7257
 30
0.0000
 11
6.4007
 21
13.3259
 31
0.0000
  0
LINE
  8
21
 10
6.4007
 20
13.3259
 30
0.0000
 11
6.2008
 21
13.1260
 31
0.0000
  0
LINE
  8
21
 10
7.3978
 20
13.5258
 30
0.0000
 11
7.3978
 21
14.7252
 31
0.0000
  0
LINE
  8
21
 10
7.3978
 20
14.7252
 30
0.0000
 11
7.9975
 21
14.7252
 31
0.0000
  0
LINE
  8
21
 10
7.9975
 20
14.7252
 30
0.0000
 11
8.1974
 21
14.5253
 31
0.0000
  0
LINE
  8
21
 10
8.1974
 20
14.5253
 30
0.0000
 11
8.1974
 21
14.3254
 31
0.0000
  0
LINE
  8
21
 10
8.1974
 20
14.3254
 30
0.0000
 11
7.9975
 21
14.1255
 31
0.0000
  0
LINE
  8
21
 10
7.9975
 20
14.1255
 30
0.0000
 11
8.1974
 21
13.9256
 31
0.0000
  0
LINE
  8
21
 10
8.1974
 20
13.9256
 30
0.0000
 11
8.1974
 21
13.7257
 31
0.0000
  0
LINE
  8
21
 10
8.1974
 20
13.7257
 30
0.0000
 11
7.9975
 21
13.5258
 31
0.0000
  0
LINE
  8
21
 10
7.9975
 20
13.5258
 30
0.0000
 11
7.3978
 21
13.5258
 31
0.0000
  0
LINE
  8
21
 10
7.3978
 20
14.1255
 30
0.0000
 11
7.9975
 21
14.1255
 31
0.0000
  0
LINE
  8
21
 10
8.5948
 20
13.5258
 30
0.0000
 11
8.5948
 21
14.7252
 31
0.0000
  0
LINE
  8
21
 10
8.5948
 20
14.7252
 30
0.0000
 11
9.1946
 21
14.7252
 31
0.0000
  0
LINE
  8
21
 10
9.1946
 20
14.7252
 30
0.0000
 11
9.3945
 21
14.5253
 31
0.0000
  0
LINE
  8
21
 10
9.3945
 20
14.5253
 30
0.0000
 11
9.3945
 21
14.3254
 31
0.0000
  0
LINE
  8
21
 10
9.3945
 20
14.3254
 30
0.0000
 11
9.1946
 21
14.1255
 31
0.0000
  0
LINE
  8
21
 10
9.1946
 20
14.1255
 30
0.0000
 11
9.3945
 21
13.9256
 31
0.0000
  0
LINE
  8
21
 10
9.3945
 20
13.9256
 30
0.0000
 11
9.3945
 21
13.7257
 31
0.0000
  0
LINE
  8
21
 10
9.3945
 20
13.7257
 30
0.0000
 11
9.1946
 21
13.5258
 31
0.0000
  0
LINE
  8
21
 10
9.1946
 20
13.5258
 30
0.0000
 11
8.5948
 21
13.5258
 31
0.0000
  0
LINE
  8
21
 10
8.5948
 20
14.1255
 30
0.0000
 11
9.1946
 21
14.1255
 31
0.0000
  0
LINE
  8
21
 10
9.7919
 20
13.5258
 30
0.0000
 11
10.1917
 21
13.5258
 31
0.0000
  0
LINE
  8
21
 10
9.9918
 20
13.5258
 30
0.0000
 11
9.9918
 21
14.7252
 31
0.0000
  0
LINE
  8
21
 10
9.7919
 20
14.7252
 30
0.0000
 11
10.1917
 21
14.7252
 31
0.0000
  0
LINE
  8
21
 10
4.4881
 20
4.5378
 30
0.0000
 11
4.4881
 21
4.1255
 31
0.0000
  0
LINE
  8
21
 10
4.4881
 20
4.1255
 30
0.0000
 11
4.6255
 21
3.9881
 31
0.0000
  0
LINE
  8
21
 10
4.6255
 20
3.9881
 30
0.0000
 11
4.7629
 21
4.1255
 31
0.0000
  0
LINE
  8
21
 10
4.7629
 20
4.1255
 30
0.0000
 11
4.9004
 21
3.9881
 31
0.0000
  0
LINE
  8
21
 10
4.9004
 20
3.9881
 30
0.0000
 11
5.0378
 21
4.1255
 31
0.0000
  0
LINE
  8
21
 10
5.0378
 20
4.1255
 30
0.0000
 11
5.0378
 21
4.5378
 31
0.0000
  0
LINE
  8
21
 10
5.3168
 20
4.5378
 30
0.0000
 11
5.3168
 21
4.1255
 31
0.0000
  0
LINE
  8
21
 10
5.3168
 20
4.1255
 30
0.0000
 11
5.4542
 21
3.9881
 31
0.0000
  0
LINE
  8
21
 10
5.4542
 20
3.9881
 30
0.0000
 11
5.5916
 21
4.1255
 31
0.0000
  0
LINE
  8
21
 10
5.5916
 20
4.1255
 30
0.0000
 11
5.7291
 21
3.9881
 31
0.0000
  0
LINE
  8
21
 10
5.7291
 20
3.9881
 30
0.0000
 11
5.8665
 21
4.1255
 31
0.0000
  0
LINE
  8
21
 10
5.8665
 20
4.1255
 30
0.0000
 11
5.8665
 21
4.5378
 31
0.0000
  0
LINE
  8
21
 10
6.1455
 20
4.5378
 30
0.0000
 11
6.1455
 21
4.1255
 31
0.0000
  0
LINE
  8
21
 10
6.1455
 20
4.1255
 30
0.0000
 11
6.2829
 21
3.9881
 31
0.0000
  0
LINE
  8
21
 10
6.2829
 20
3.9881
 30
0.0000
 11
6.4203
 21
4.1255
 31
0.0000
  0
LINE
  8
21
 10
6.4203
 20
4.1255
 30
0.0000
 11
6.5578
 21
3.9881
 31
0.0000
  0
LINE
  8
21
 10
6.5578
 20
3.9881
 30
0.0000
 11
6.6952
 21
4.1255
 31
0.0000
  0
LINE
  8
21
 10
6.6952
 20
4.1255
 30
0.0000
 11
6.6952
 21
4.5378
 31
0.0000
  0
LINE
  8
21
 10
6.9742
 20
3.9881
 30
0.0000
 11
6.9742
 21
4.1255
 31
0.0000
  0
LINE
  8
21
 10
6.9742
 20
4.1255
 30
0.0000
 11
7.1116
 21
4.1255
 31
0.0000
  0
LINE
  8
21
 10
7.1116
 20
4.1255
 30
0.0000
 11
7.1116
 21
3.9881
 31
0.0000
  0
LINE
  8
21
 10
7.1116
 20
3.9881
 30
0.0000
 11
6.9742
 21
3.9881
 31
0.0000
  0
LINE
  8
21
 10
7.3886
 20
4.8126
 30
0.0000
 11
7.5260
 21
4.8126
 31
0.0000
  0
LINE
  8
21
 10
7.5260
 20
4.8126
 30
0.0000
 11
7.5260
 21
3.9881
 31
0.0000
  0
LINE
  8
21
 10
7.3886
 20
3.9881
 30
0.0000
 11
7.6634
 21
3.9881
 31
0.0000
  0
LINE
  8
21
 10
8.3533
 20
3.9881
 30
0.0000
 11
8.0785
 21
3.9881
 31
0.0000
  0
LINE
  8
21
 10
8.0785
 20
3.9881
 30
0.0000
 11
7.9410
 21
4.1255
 31
0.0000
  0
LINE
  8
21
 10
7.9410
 20
4.1255
 30
0.0000
 11
7.9410
 21
4.4004
 31
0.0000
  0
LINE
  8
21
 10
7.9410
 20
4.4004
 30
0.0000
 11
8.0785
 21
4.5378
 31
0.0000
  0
LINE
  8
21
 10
8.0785
 20
4.5378
 30
0.0000
 11
8.3533
 21
4.5378
 31
0.0000
  0
LINE
  8
21
 10
8.3533
 20
4.5378
 30
0.0000
 11
8.4907
 21
4.4004
 31
0.0000
  0
LINE
  8
21
 10
8.4907
 20
4.4004
 30
0.0000
 11
8.4907
 21
4.2629
 31
0.0000
  0
LINE
  8
21
 10
8.4907
 20
4.2629
 30
0.0000
 11
7.9410
 21
4.2629
 31
0.0000
  0
LINE
  8
21
 10
8.9072
 20
3.9881
 30
0.0000
 11
9.1820
 21
3.9881
 31
0.0000
  0
LINE
  8
21
 10
9.1820
 20
3.9881
 30
0.0000
 11
9.3194
 21
4.1255
 31
0.0000
  0
LINE
  8
21
 10
9.3194
 20
4.1255
 30
0.0000
 11
9.3194
 21
4.4004
 31
0.0000
  0
LINE
  8
21
 10
9.3194
 20
4.4004
 30
0.0000
 11
9.1820
 21
4.5378
 31
0.0000
  0
LINE
  8
21
 10
9.1820
 20
4.5378
 30
0.0000
 11
8.9072
 21
4.5378
 31
0.0000
  0
LINE
  8
21
 10
8.9072
 20
4.5378
 30
0.0000
 11
8.7698
 21
4.4004
 31
0.0000
  0
LINE
  8
21
 10
8.7698
 20
4.4004
 30
0.0000
 11
8.7698
 21
4.1255
 31
0.0000
  0
LINE
  8
21
 10
8.7698
 20
4.1255
 30
0.0000
 11
8.9072
 21
3.9881
 31
0.0000
  0
LINE
  8
21
 10
9.5985
 20
4.8126
 30
0.0000
 11
9.5985
 21
3.9881
 31
0.0000
  0
LINE
  8
21
 10
9.5985
 20
3.9881
 30
0.0000
 11
10.0107
 21
3.9881
 31
0.0000
  0
LINE
  8
21
 10
10.0107
 20
3.9881
 30
0.0000
 11
10.1481
 21
4.1255
 31
0.0000
  0
LINE
  8
21
 10
10.1481
 20
4.1255
 30
0.0000
 11
10.1481
 21
4.4004
 31
0.0000
  0
LINE
  8
21
 10
10.1481
 20
4.4004
 30
0.0000
 11
10.0107
 21
4.5378
 31
0.0000
  0
LINE
  8
21
 10
10.0107
 20
4.5378
 30
0.0000
 11
9.5985
 21
4.5378
 31
0.0000
  0
LINE
  8
21
 10
10.5646
 20
3.9881
 30
0.0000
 11
10.8394
 21
3.9881
 31
0.0000
  0
LINE
  8
21
 10
10.8394
 20
3.9881
 30
0.0000
 11
10.9768
 21
4.1255
 31
0.0000
  0
LINE
  8
21
 10
10.9768
 20
4.1255
 30
0.0000
 11
10.9768
 21
4.4004
 31
0.0000
  0
LINE
  8
21
 10
10.9768
 20
4.4004
 30
0.0000
 11
10.8394
 21
4.5378
 31
0.0000
  0
LINE
  8
21
 10
10.8394
 20
4.5378
 30
0.0000
 11
10.5646
 21
4.5378
 31
0.0000
  0
LINE
  8
21
 10
10.5646
 20
4.5378
 30
0.0000
 11
10.4272
 21
4.4004
 31
0.0000
  0
LINE
  8
21
 10
10.4272
 20
4.4004
 30
0.0000
 11
10.4272
 21
4.1255
 31
0.0000
  0
LINE
  8
21
 10
10.4272
 20
4.1255
 30
0.0000
 11
10.5646
 21
3.9881
 31
0.0000
  0
LINE
  8
21
 10
11.8055
 20
4.8126
 30
0.0000
 11
11.8055
 21
3.9881
 31
0.0000
  0
LINE
  8
21
 10
11.8055
 20
3.9881
 30
0.0000
 11
11.3933
 21
3.9881
 31
0.0000
  0
LINE
  8
21
 10
11.3933
 20
3.9881
 30
0.0000
 11
11.2559
 21
4.1255
 31
0.0000
  0
LINE
  8
21
 10
11.2559
 20
4.1255
 30
0.0000
 11
11.2559
 21
4.4004
 31
0.0000
  0
LINE
  8
21
 10
11.2559
 20
4.4004
 30
0.0000
 11
11.3933
 21
4.5378
 31
0.0000
  0
LINE
  8
21
 10
11.3933
 20
4.5378
 30
0.0000
 11
11.8055
 21
4.5378
 31
0.0000
  0
LINE
  8
21
 10
12.0846
 20
3.9881
 30
0.0000
 11
12.0846
 21
4.5378
 31
0.0000
  0
LINE
  8
21
 10
12.0846
 20
4.5378
 30
0.0000
 11
12.4968
 21
4.5378
 31
0.0000
  0
LINE
  8
21
 10
12.4968
 20
4.5378
 30
0.0000
 11
12.6342
 21
4.4004
 31
0.0000
  0
LINE
  8
21
 10
12.6342
 20
4.4004
 30
0.0000
 11
12.6342
 21
3.9881
 31
0.0000
  0
LINE
  8
21
 10
13.0507
 20
4.5378
 30
0.0000
 11
13.3255
 21
4.5378
 31
0.0000
  0
LINE
  8
21
 10
13.3255
 20
4.5378
 30
0.0000
 11
13.4630
 21
4.4004
 31
0.0000
  0
LINE
  8
21
 10
13.4630
 20
4.4004
 30
0.0000
 11
13.4630
 21
3.9881
 31
0.0000
  0
LINE
  8
21
 10
13.4630
 20
3.9881
 30
0.0000
 11
13.0507
 21
3.9881
 31
0.0000
  0
LINE
  8
21
 10
13.0507
 20
3.9881
 30
0.0000
 11
12.9133
 21
4.1255
 31
0.0000
  0
LINE
  8
21
 10
12.9133
 20
4.1255
 30
0.0000
 11
13.0507
 21
4.2629
 31
0.0000
  0
LINE
  8
21
 10
13.0507
 20
4.2629
 30
0.0000
 11
13.4630
 21
4.2629
 31
0.0000
  0
LINE
  8
21
 10
13.7420
 20
3.9881
 30
0.0000
 11
13.7420
 21
4.5378
 31
0.0000
  0
LINE
  8
21
 10
13.7420
 20
4.2629
 30
0.0000
 11
14.0168
 21
4.5378
 31
0.0000
  0
LINE
  8
21
 10
14.0168
 20
4.5378
 30
0.0000
 11
14.1542
 21
4.5378
 31
0.0000
  0
LINE
  8
21
 10
14.4326
 20
3.9881
 30
0.0000
 11
14.4326
 21
4.1255
 31
0.0000
  0
LINE
  8
21
 10
14.4326
 20
4.1255
 30
0.0000
 11
14.5700
 21
4.1255
 31
0.0000
  0
LINE
  8
21
 10
14.5700
 20
4.1255
 30
0.0000
 11
14.5700
 21
3.9881
 31
0.0000
  0
LINE
  8
21
 10
14.5700
 20
3.9881
 30
0.0000
 11
14.4326
 21
3.9881
 31
0.0000
  0
LINE
  8
21
 10
15.3966
 20
4.5378
 30
0.0000
 11
14.9843
 21
4.5378
 31
0.0000
  0
LINE
  8
21
 10
14.9843
 20
4.5378
 30
0.0000
 11
14.8469
 21
4.4004
 31
0.0000
  0
LINE
  8
21
 10
14.8469
 20
4.4004
 30
0.0000
 11
14.8469
 21
4.1255
 31
0.0000
  0
LINE
  8
21
 10
14.8469
 20
4.1255
 30
0.0000
 11
14.9843
 21
3.9881
 31
0.0000
  0
LINE
  8
21
 10
14.9843
 20
3.9881
 30
0.0000
 11
15.3966
 21
3.9881
 31
0.0000
  0
LINE
  8
21
 10
15.8131
 20
3.9881
 30
0.0000
 11
16.0879
 21
3.9881
 31
0.0000
  0
LINE
  8
21
 10
16.0879
 20
3.9881
 30
0.0000
 11
16.2253
 21
4.1255
 31
0.0000
  0
LINE
  8
21
 10
16.2253
 20
4.1255
 30
0.0000
 11
16.2253
 21
4.4004
 31
0.0000
  0
LINE
  8
21
 10
16.2253
 20
4.4004
 30
0.0000
 11
16.0879
 21
4.5378
 31
0.0000
  0
LINE
  8
21
 10
16.0879
 20
4.5378
 30
0.0000
 11
15.8131
 21
4.5378
 31
0.0000
  0
LINE
  8
21
 10
15.8131
 20
4.5378
 30
0.0000
 11
15.6756
 21
4.4004
 31
0.0000
  0
LINE
  8
21
 10
15.6756
 20
4.4004
 30
0.0000
 11
15.6756
 21
4.1255
 31
0.0000
  0
LINE
  8
21
 10
15.6756
 20
4.1255
 30
0.0000
 11
15.8131
 21
3.9881
 31
0.0000
  0
LINE
  8
21
 10
16.5043
 20
3.9881
 30
0.0000
 11
16.5043
 21
4.5378
 31
0.0000
  0
LINE
  8
21
 10
16.5043
 20
4.5378
 30
0.0000
 11
16.6418
 21
4.5378
 31
0.0000
  0
LINE
  8
21
 10
16.6418
 20
4.5378
 30
0.0000
 11
16.7792
 21
4.4004
 31
0.0000
  0
LINE
  8
21
 10
16.7792
 20
4.4004
 30
0.0000
 11
16.7792
 21
3.9881
 31
0.0000
  0
LINE
  8
21
 10
16.7792
 20
4.4004
 30
0.0000
 11
16.9166
 21
4.5378
 31
0.0000
  0
LINE
  8
21
 10
16.9166
 20
4.5378
 30
0.0000
 11
17.0540
 21
4.4004
 31
0.0000
  0
LINE
  8
21
 10
17.0540
 20
4.4004
 30
0.0000
 11
17.0540
 21
3.9881
 31
0.0000
  0
LINE
  8
21
 10
20.4710
 20
15.7668
 30
0.0000
 11
20.3503
 21
15.8875
 31
0.0000
  0
LINE
  8
21
 10
20.3503
 20
15.8875
 30
0.0000
 11
20.1088
 21
15.8875
 31
0.0000
  0
LINE
  8
21
 10
20.1088
 20
15.8875
 30
0.0000
 11
19.9881
 21
15.7668
 31
0.0000
  0
LINE
  8
21
 10
19.9881
 20
15.7668
 30
0.0000
 11
19.9881
 21
15.2838
 31
0.0000
  0
LINE
  8
21
 10
19.9881
 20
15.2838
 30
0.0000
 11
20.1088
 21
15.1631
 31
0.0000
  0
LINE
  8
21
 10
20.1088
 20
15.1631
 30
0.0000
 11
20.3503
 21
15.1631
 31
0.0000
  0
LINE
  8
21
 10
20.3503
 20
15.1631
 30
0.0000
 11
20.4710
 21
15.2838
 31
0.0000
  0
LINE
  8
21
 10
20.4710
 20
15.2838
 30
0.0000
 11
20.4710
 21
15.5253
 31
0.0000
  0
LINE
  8
21
 10
20.4710
 20
15.5253
 30
0.0000
 11
20.2296
 21
15.5253
 31
0.0000
  0
LINE
  8
21
 10
20.7247
 20
15.1631
 30
0.0000
 11
20.7247
 21
15.8875
 31
0.0000
  0
LINE
  8
21
 10
20.7247
 20
15.8875
 30
0.0000
 11
21.2077
 21
15.1631
 31
0.0000
  0
LINE
  8
21
 10
21.2077
 20
15.1631
 30
0.0000
 11
21.2077
 21
15.8875
 31
0.0000
  0
LINE
  8
21
 10
21.4614
 20
15.8875
 30
0.0000
 11
21.4614
 21
15.1631
 31
0.0000
  0
LINE
  8
21
 10
21.4614
 20
15.1631
 30
0.0000
 11
21.8236
 21
15.1631
 31
0.0000
  0
LINE
  8
21
 10
21.8236
 20
15.1631
 30
0.0000
 11
21.9443
 21
15.2838
 31
0.0000
  0
LINE
  8
21
 10
21.9443
 20
15.2838
 30
0.0000
 11
21.9443
 21
15.7668
 31
0.0000
  0
LINE
  8
21
 10
21.9443
 20
15.7668
 30
0.0000
 11
21.8236
 21
15.8875
 31
0.0000
  0
LINE
  8
21
 10
21.8236
 20
15.8875
 30
0.0000
 11
21.4614
 21
15.8875
 31
0.0000
  0
LINE
  8
21
 10
19.9131
 20
12.5126
 30
0.0000
 11
19.9131
 21
11.6881
 31
0.0000
  0
LINE
  8
21
 10
19.9131
 20
11.6881
 30
0.0000
 11
20.3254
 21
11.6881
 31
0.0000
  0
LINE
  8
21
 10
20.3254
 20
11.6881
 30
0.0000
 11
20.4628
 21
11.8255
 31
0.0000
  0
LINE
  8
21
 10
20.4628
 20
11.8255
 30
0.0000
 11
20.4628
 21
12.3752
 31
0.0000
  0
LINE
  8
21
 10
20.4628
 20
12.3752
 30
0.0000
 11
20.3254
 21
12.5126
 31
0.0000
  0
LINE
  8
21
 10
20.3254
 20
12.5126
 30
0.0000
 11
19.9131
 21
12.5126
 31
0.0000
  0
LINE
  8
21
 10
20.7418
 20
12.1004
 30
0.0000
 11
21.2915
 21
12.1004
 31
0.0000
  0
LINE
  8
21
 10
21.0166
 20
12.3752
 30
0.0000
 11
21.0166
 21
11.8255
 31
0.0000
  0
LINE
  8
21
 10
19.9631
 20
10.4126
 30
0.0000
 11
19.9631
 21
9.5881
 31
0.0000
  0
LINE
  8
21
 10
19.9631
 20
9.5881
 30
0.0000
 11
20.3754
 21
9.5881
 31
0.0000
  0
LINE
  8
21
 10
20.3754
 20
9.5881
 30
0.0000
 11
20.5128
 21
9.7255
 31
0.0000
  0
LINE
  8
21
 10
20.5128
 20
9.7255
 30
0.0000
 11
20.5128
 21
10.2752
 31
0.0000
  0
LINE
  8
21
 10
20.5128
 20
10.2752
 30
0.0000
 11
20.3754
 21
10.4126
 31
0.0000
  0
LINE
  8
21
 10
20.3754
 20
10.4126
 30
0.0000
 11
19.9631
 21
10.4126
 31
0.0000
  0
LINE
  8
21
 10
20.7918
 20
10.0004
 30
0.0000
 11
21.3415
 21
10.0004
 31
0.0000
  0
LINE
  8
21
 10
20.4378
 20
8.6376
 30
0.0000
 11
19.8881
 21
8.6376
 31
0.0000
  0
LINE
  8
21
 10
19.8881
 20
8.6376
 30
0.0000
 11
19.8881
 21
8.2254
 31
0.0000
  0
LINE
  8
21
 10
19.8881
 20
8.2254
 30
0.0000
 11
20.1629
 21
8.3628
 31
0.0000
  0
LINE
  8
21
 10
20.1629
 20
8.3628
 30
0.0000
 11
20.3004
 21
8.3628
 31
0.0000
  0
LINE
  8
21
 10
20.3004
 20
8.3628
 30
0.0000
 11
20.4378
 21
8.2254
 31
0.0000
  0
LINE
  8
21
 10
20.4378
 20
8.2254
 30
0.0000
 11
20.4378
 21
7.9505
 31
0.0000
  0
LINE
  8
21
 10
20.4378
 20
7.9505
 30
0.0000
 11
20.3004
 21
7.8131
 31
0.0000
  0
LINE
  8
21
 10
20.3004
 20
7.8131
 30
0.0000
 11
20.0255
 21
7.8131
 31
0.0000
  0
LINE
  8
21
 10
20.0255
 20
7.8131
 30
0.0000
 11
19.8881
 21
7.9505
 31
0.0000
  0
LINE
  8
21
 10
20.7168
 20
8.3628
 30
0.0000
 11
20.9916
 21
7.8131
 31
0.0000
  0
LINE
  8
21
 10
20.9916
 20
7.8131
 30
0.0000
 11
21.2665
 21
8.3628
 31
0.0000
  0
LINE
  8
22
 10
15.1619
 20
5.8381
 30
0.0000
 11
15.1619
 21
6.7627
 31
0.0000
  0
LINE
  8
22
 10
15.1619
 20
6.7627
 30
0.0000
 11
14.6996
 21
6.7627
 31
0.0000
  0
LINE
  8
22
 10
14.6996
 20
6.7627
 30
0.0000
 11
14.5455
 21
6.6086
 31
0.0000
  0
LINE
  8
22
 10
14.5455
 20
6.6086
 30
0.0000
 11
14.5455
 21
6.3004
 31
0.0000
  0
LINE
  8
22
 10
14.5455
 20
6.3004
 30
0.0000
 11
14.6996
 21
6.1463
 31
0.0000
  0
LINE
  8
22
 10
14.6996
 20
6.1463
 30
0.0000
 11
15.1619
 21
6.1463
 31
0.0000
  0
LINE
  8
22
 10
14.8537
 20
6.1463
 30
0.0000
 11
14.5455
 21
5.8381
 31
0.0000
  0
LINE
  8
22
 10
13.7788
 20
5.8381
 30
0.0000
 11
14.0870
 21
5.8381
 31
0.0000
  0
LINE
  8
22
 10
14.0870
 20
5.8381
 30
0.0000
 11
14.2411
 21
5.9922
 31
0.0000
  0
LINE
  8
22
 10
14.2411
 20
5.9922
 30
0.0000
 11
14.2411
 21
6.3004
 31
0.0000
  0
LINE
  8
22
 10
14.2411
 20
6.3004
 30
0.0000
 11
14.0870
 21
6.4545
 31
0.0000
  0
LINE
  8
22
 10
14.0870
 20
6.4545
 30
0.0000
 11
13.7788
 21
6.4545
 31
0.0000
  0
LINE
  8
22
 10
13.7788
 20
6.4545
 30
0.0000
 11
13.6247
 21
6.3004
 31
0.0000
  0
LINE
  8
22
 10
13.6247
 20
6.3004
 30
0.0000
 11
13.6247
 21
6.1463
 31
0.0000
  0
LINE
  8
22
 10
13.6247
 20
6.1463
 30
0.0000
 11
14.2411
 21
6.1463
 31
0.0000
  0
LINE
  8
22
 10
13.3203
 20
6.4545
 30
0.0000
 11
13.0121
 21
5.8381
 31
0.0000
  0
LINE
  8
22
 10
13.0121
 20
5.8381
 30
0.0000
 11
12.7039
 21
6.4545
 31
0.0000
  0
LINE
  8
22
 10
12.3995
 20
5.8381
 30
0.0000
 11
12.3995
 21
5.9922
 31
0.0000
  0
LINE
  8
22
 10
12.3995
 20
5.9922
 30
0.0000
 11
12.2454
 21
5.9922
 31
0.0000
  0
LINE
  8
22
 10
12.2454
 20
5.9922
 30
0.0000
 11
12.2454
 21
5.8381
 31
0.0000
  0
LINE
  8
22
 10
12.2454
 20
5.8381
 30
0.0000
 11
12.3995
 21
5.8381
 31
0.0000
  0
LINE
  8
22
 10
11.9392
 20
5.8381
 30
0.0000
 11
11.9392
 21
6.7627
 31
0.0000
  0
LINE
  8
22
 10
11.9392
 20
6.7627
 30
0.0000
 11
11.4769
 21
6.7627
 31
0.0000
  0
LINE
  8
22
 10
11.4769
 20
6.7627
 30
0.0000
 11
11.3228
 21
6.6086
 31
0.0000
  0
LINE
  8
22
 10
11.3228
 20
6.6086
 30
0.0000
 11
11.3228
 21
6.4545
 31
0.0000
  0
LINE
  8
22
 10
11.3228
 20
6.4545
 30
0.0000
 11
11.4769
 21
6.3004
 31
0.0000
  0
LINE
  8
22
 10
11.4769
 20
6.3004
 30
0.0000
 11
11.3228
 21
6.1463
 31
0.0000
  0
LINE
  8
22
 10
11.3228
 20
6.1463
 30
0.0000
 11
11.3228
 21
5.9922
 31
0.0000
  0
LINE
  8
22
 10
11.3228
 20
5.9922
 30
0.0000
 11
11.4769
 21
5.8381
 31
0.0000
  0
LINE
  8
22
 10
11.4769
 20
5.8381
 30
0.0000
 11
11.9392
 21
5.8381
 31
0.0000
  0
LINE
  8
22
 10
11.9392
 20
6.3004
 30
0.0000
 11
11.4769
 21
6.3004
 31
0.0000
  0
LINE
  8
22
 10
11.0184
 20
5.8381
 30
0.0000
 11
11.0184
 21
5.9922
 31
0.0000
  0
LINE
  8
22
 10
11.0184
 20
5.9922
 30
0.0000
 11
10.8643
 21
5.9922
 31
0.0000
  0
LINE
  8
22
 10
10.8643
 20
5.9922
 30
0.0000
 11
10.8643
 21
5.8381
 31
0.0000
  0
LINE
  8
22
 10
10.8643
 20
5.8381
 30
0.0000
 11
11.0184
 21
5.8381
 31
0.0000
  0
LINE
  8
51
 10
13.5200
 20
9.4960
 30
0.0000
 11
13.0300
 21
9.4960
 31
0.0000
  0
LINE
  8
51
 10
13.0300
 20
9.9440
 30
0.0000
 11
13.5200
 21
9.9440
 31
0.0000
  0
INSERT
  8
51
  2
RECT
 10
13.6790
 20
9.7248
 30
0.0000
 41
0.3000
 42
0.5999
 43
1.0000
 50
180.0000
  0
INSERT
  8
51
  2
RECT
 10
12.8662
 20
9.7248
 30
0.0000
 41
0.3000
 42
0.5999
 43
1.0000
 50
180.0000
  0
LINE
  8
51
 10
13.2490
 20
8.2450
 30
0.0000
 11
13.2490
 21
7.7550
 31
0.0000
  0
LINE
  8
51
 10
12.8010
 20
7.7550
 30
0.0000
 11
12.8010
 21
8.2450
 31
0.0000
  0
INSERT
  8
51
  2
RECT
 10
13.0202
 20
8.4040
 30
0.0000
 41
0.3000
 42
0.5999
 43
1.0000
 50
270.0000
  0
INSERT
  8
51
  2
RECT
 10
13.0202
 20
7.5912
 30
0.0000
 41
0.3000
 42
0.5999
 43
1.0000
 50
270.0000
  0
LINE
  8
51
 10
14.2450
 20
5.8510
 30
0.0000
 11
13.7550
 21
5.8510
 31
0.0000
  0
LINE
  8
51
 10
13.7550
 20
6.2990
 30
0.0000
 11
14.2450
 21
6.2990
 31
0.0000
  0
INSERT
  8
51
  2
RECT
 10
14.4040
 20
6.0799
 30
0.0000
 41
0.3000
 42
0.5999
 43
1.0000
 50
180.0000
  0
INSERT
  8
51
  2
RECT
 10
13.5912
 20
6.0799
 30
0.0000
 41
0.3000
 42
0.5999
 43
1.0000
 50
180.0000
  0
LINE
  8
51
 10
19.4570
 20
4.8560
 30
0.0000
 11
18.5930
 21
4.8560
 31
0.0000
  0
LINE
  8
51
 10
18.5930
 20
4.1440
 30
0.0000
 11
19.4570
 21
4.1440
 31
0.0000
  0
INSERT
  8
51
  2
RECT
 10
18.3900
 20
4.5000
 30
0.0000
 41
0.4064
 42
0.8636
 43
1.0000
 50
180.0000
  0
INSERT
  8
51
  2
RECT
 10
19.6600
 20
4.5000
 30
0.0000
 41
0.4064
 42
0.8636
 43
1.0000
 50
180.0000
  0
LINE
  8
51
 10
14.1260
 20
7.7600
 30
0.0000
 11
14.1260
 21
8.2500
 31
0.0000
  0
LINE
  8
51
 10
14.5740
 20
8.2500
 30
0.0000
 11
14.5740
 21
7.7600
 31
0.0000
  0
INSERT
  8
51
  2
RECT
 10
14.3549
 20
7.6010
 30
0.0000
 41
0.3000
 42
0.5999
 43
1.0000
 50
90.0000
  0
INSERT
  8
51
  2
RECT
 10
14.3549
 20
8.4138
 30
0.0000
 41
0.3000
 42
0.5999
 43
1.0000
 50
90.0000
  0
LINE
  8
51
 10
29.1000
 20
4.6000
 30
0.0000
 11
26.1000
 21
4.6000
 31
0.0000
  0
LINE
  8
51
 10
26.1000
 20
4.6000
 30
0.0000
 11
26.1000
 21
6.7000
 31
0.0000
  0
LINE
  8
51
 10
26.1000
 20
6.7000
 30
0.0000
 11
26.1000
 21
13.5000
 31
0.0000
  0
LINE
  8
51
 10
26.1000
 20
13.5000
 30
0.0000
 11
26.1000
 21
15.6000
 31
0.0000
  0
LINE
  8
51
 10
26.1000
 20
15.6000
 30
0.0000
 11
29.1000
 21
15.6000
 31
0.0000
  0
LINE
  8
51
 10
26.1000
 20
6.7000
 30
0.0000
 11
24.8000
 21
6.7000
 31
0.0000
  0
LINE
  8
51
 10
26.1000
 20
13.5000
 30
0.0000
 11
24.8000
 21
13.5000
 31
0.0000
  0
LINE
  8
51
 10
24.6500
 20
13.9500
 30
0.0000
 11
16.2500
 21
13.9500
 31
0.0000
  0
LINE
  8
51
 10
16.2500
 20
13.9500
 30
0.0000
 11
16.2500
 21
6.2500
 31
0.0000
  0
LINE
  8
51
 10
16.2500
 20
6.2500
 30
0.0000
 11
24.6500
 21
6.2500
 31
0.0000
  0
LINE
  8
51
 10
24.6500
 20
6.2500
 30
0.0000
 11
24.6500
 21
13.9500
 31
0.0000
  0
LINE
  8
21
 10
20.1000
 20
6.2500
 30
0.0000
 11
18.0000
 21
6.2500
 31
0.0000
  0
LINE
  8
21
 10
20.1000
 20
13.9500
 30
0.0000
 11
18.0000
 21
13.9500
 31
0.0000
  0
LINE
  8
21
 10
23.0000
 20
13.9500
 30
0.0000
 11
24.6500
 21
13.9500
 31
0.0000
  0
LINE
  8
21
 10
24.6500
 20
13.9500
 30
0.0000
 11
24.6500
 21
6.2500
 31
0.0000
  0
LINE
  8
21
 10
24.6500
 20
6.2500
 30
0.0000
 11
23.0000
 21
6.2500
 31
0.0000
  0
LINE
  8
21
 10
16.2500
 20
7.2000
 30
0.0000
 11
16.2500
 21
7.8000
 31
0.0000
  0
LINE
  8
21
 10
16.2500
 20
12.4000
 30
0.0000
 11
16.2500
 21
13.0000
 31
0.0000
  0
INSERT
  8
17
  2
ROUNDP
 10
15.9000
 20
10.1000
 30
0.0000
 41
1.2000
 42
1.2000
 43
1.0000
 50
180.0000
  0
INSERT
  8
17
  2
ROUNDP
 10
15.9000
 20
10.1000
 30
0.0000
 41
1.2000
 42
1.2000
 43
1.0000
 50
180.0000
  0
INSERT
  8
17
  2
ROUNDP
 10
17.2000
 20
9.3000
 30
0.0000
 41
1.2000
 42
1.2000
 43
1.0000
 50
180.0000
  0
INSERT
  8
17
  2
ROUNDP
 10
17.2000
 20
9.3000
 30
0.0000
 41
1.2000
 42
1.2000
 43
1.0000
 50
180.0000
  0
INSERT
  8
17
  2
ROUNDP
 10
15.9000
 20
11.7000
 30
0.0000
 41
1.2000
 42
1.2000
 43
1.0000
 50
180.0000
  0
INSERT
  8
17
  2
ROUNDP
 10
15.9000
 20
11.7000
 30
0.0000
 41
1.2000
 42
1.2000
 43
1.0000
 50
180.0000
  0
INSERT
  8
17
  2
ROUNDP
 10
21.2500
 20
6.4500
 30
0.0000
 41
2.4000
 42
2.4000
 43
1.0000
 50
180.0000
  0
INSERT
  8
17
  2
ROUNDP
 10
21.2500
 20
6.4500
 30
0.0000
 41
2.4000
 42
2.4000
 43
1.0000
 50
180.0000
  0
INSERT
  8
17
  2
ROUNDP
 10
21.2500
 20
13.7500
 30
0.0000
 41
2.4000
 42
2.4000
 43
1.0000
 50
180.0000
  0
INSERT
  8
17
  2
ROUNDP
 10
21.2500
 20
13.7500
 30
0.0000
 41
2.4000
 42
2.4000
 43
1.0000
 50
180.0000
  0
INSERT
  8
17
  2
ROUNDP
 10
16.8500
 20
13.7500
 30
0.0000
 41
2.2500
 42
2.2500
 43
1.0000
 50
180.0000
  0
INSERT
  8
17
  2
ROUNDP
 10
16.8500
 20
13.7500
 30
0.0000
 41
2.2500
 42
2.2500
 43
1.0000
 50
180.0000
  0
INSERT
  8
17
  2
ROUNDP
 10
16.8500
 20
6.4500
 30
0.0000
 41
2.2500
 42
2.2500
 43
1.0000
 50
180.0000
  0
INSERT
  8
17
  2
ROUNDP
 10
16.8500
 20
6.4500
 30
0.0000
 41
2.2500
 42
2.2500
 43
1.0000
 50
180.0000
  0
INSERT
  8
17
  2
ROUNDP
 10
17.2000
 20
10.9000
 30
0.0000
 41
1.2000
 42
1.2000
 43
1.0000
 50
180.0000
  0
INSERT
  8
17
  2
ROUNDP
 10
17.2000
 20
10.9000
 30
0.0000
 41
1.2000
 42
1.2000
 43
1.0000
 50
180.0000
  0
INSERT
  8
17
  2
ROUNDP
 10
15.9000
 20
8.5000
 30
0.0000
 41
1.2000
 42
1.2000
 43
1.0000
 50
180.0000
  0
INSERT
  8
17
  2
ROUNDP
 10
15.9000
 20
8.5000
 30
0.0000
 41
1.2000
 42
1.2000
 43
1.0000
 50
180.0000
  0
LINE
  8
51
 10
18.8450
 20
18.9900
 30
0.0000
 11
20.1150
 21
18.9900
 31
0.0000
  0
LINE
  8
51
 10
20.1150
 20
18.9900
 30
0.0000
 11
20.7500
 21
18.3550
 31
0.0000
  0
LINE
  8
51
 10
20.7500
 20
18.3550
 30
0.0000
 11
20.7500
 21
17.0850
 31
0.0000
  0
LINE
  8
51
 10
20.7500
 20
17.0850
 30
0.0000
 11
20.1150
 21
16.4500
 31
0.0000
  0
LINE
  8
51
 10
15.6700
 20
18.3550
 30
0.0000
 11
16.3050
 21
18.9900
 31
0.0000
  0
LINE
  8
51
 10
16.3050
 20
18.9900
 30
0.0000
 11
17.5750
 21
18.9900
 31
0.0000
  0
LINE
  8
51
 10
17.5750
 20
18.9900
 30
0.0000
 11
18.2100
 21
18.3550
 31
0.0000
  0
LINE
  8
51
 10
18.2100
 20
18.3550
 30
0.0000
 11
18.2100
 21
17.0850
 31
0.0000
  0
LINE
  8
51
 10
18.2100
 20
17.0850
 30
0.0000
 11
17.5750
 21
16.4500
 31
0.0000
  0
LINE
  8
51
 10
17.5750
 20
16.4500
 30
0.0000
 11
16.3050
 21
16.4500
 31
0.0000
  0
LINE
  8
51
 10
16.3050
 20
16.4500
 30
0.0000
 11
15.6700
 21
17.0850
 31
0.0000
  0
LINE
  8
51
 10
18.8450
 20
18.9900
 30
0.0000
 11
18.2100
 21
18.3550
 31
0.0000
  0
LINE
  8
51
 10
18.2100
 20
17.0850
 30
0.0000
 11
18.8450
 21
16.4500
 31
0.0000
  0
LINE
  8
51
 10
20.1150
 20
16.4500
 30
0.0000
 11
18.8450
 21
16.4500
 31
0.0000
  0
LINE
  8
51
 10
11.2250
 20
18.9900
 30
0.0000
 11
12.4950
 21
18.9900
 31
0.0000
  0
LINE
  8
51
 10
12.4950
 20
18.9900
 30
0.0000
 11
13.1300
 21
18.3550
 31
0.0000
  0
LINE
  8
51
 10
13.1300
 20
18.3550
 30
0.0000
 11
13.1300
 21
17.0850
 31
0.0000
  0
LINE
  8
51
 10
13.1300
 20
17.0850
 30
0.0000
 11
12.4950
 21
16.4500
 31
0.0000
  0
LINE
  8
51
 10
13.1300
 20
18.3550
 30
0.0000
 11
13.7650
 21
18.9900
 31
0.0000
  0
LINE
  8
51
 10
13.7650
 20
18.9900
 30
0.0000
 11
15.0350
 21
18.9900
 31
0.0000
  0
LINE
  8
51
 10
15.0350
 20
18.9900
 30
0.0000
 11
15.6700
 21
18.3550
 31
0.0000
  0
LINE
  8
51
 10
15.6700
 20
18.3550
 30
0.0000
 11
15.6700
 21
17.0850
 31
0.0000
  0
LINE
  8
51
 10
15.6700
 20
17.0850
 30
0.0000
 11
15.0350
 21
16.4500
 31
0.0000
  0
LINE
  8
51
 10
15.0350
 20
16.4500
 30
0.0000
 11
13.7650
 21
16.4500
 31
0.0000
  0
LINE
  8
51
 10
13.7650
 20
16.4500
 30
0.0000
 11
13.1300
 21
17.0850
 31
0.0000
  0
LINE
  8
51
 10
8.0500
 20
18.3550
 30
0.0000
 11
8.6850
 21
18.9900
 31
0.0000
  0
LINE
  8
51
 10
8.6850
 20
18.9900
 30
0.0000
 11
9.9550
 21
18.9900
 31
0.0000
  0
LINE
  8
51
 10
9.9550
 20
18.9900
 30
0.0000
 11
10.5900
 21
18.3550
 31
0.0000
  0
LINE
  8
51
 10
10.5900
 20
18.3550
 30
0.0000
 11
10.5900
 21
17.0850
 31
0.0000
  0
LINE
  8
51
 10
10.5900
 20
17.0850
 30
0.0000
 11
9.9550
 21
16.4500
 31
0.0000
  0
LINE
  8
51
 10
9.9550
 20
16.4500
 30
0.0000
 11
8.6850
 21
16.4500
 31
0.0000
  0
LINE
  8
51
 10
8.6850
 20
16.4500
 30
0.0000
 11
8.0500
 21
17.0850
 31
0.0000
  0
LINE
  8
51
 10
11.2250
 20
18.9900
 30
0.0000
 11
10.5900
 21
18.3550
 31
0.0000
  0
LINE
  8
51
 10
10.5900
 20
17.0850
 30
0.0000
 11
11.2250
 21
16.4500
 31
0.0000
  0
LINE
  8
51
 10
12.4950
 20
16.4500
 30
0.0000
 11
11.2250
 21
16.4500
 31
0.0000
  0
LINE
  8
51
 10
3.6050
 20
18.9900
 30
0.0000
 11
4.8750
 21
18.9900
 31
0.0000
  0
LINE
  8
51
 10
4.8750
 20
18.9900
 30
0.0000
 11
5.5100
 21
18.3550
 31
0.0000
  0
LINE
  8
51
 10
5.5100
 20
18.3550
 30
0.0000
 11
5.5100
 21
17.0850
 31
0.0000
  0
LINE
  8
51
 10
5.5100
 20
17.0850
 30
0.0000
 11
4.8750
 21
16.4500
 31
0.0000
  0
LINE
  8
51
 10
5.5100
 20
18.3550
 30
0.0000
 11
6.1450
 21
18.9900
 31
0.0000
  0
LINE
  8
51
 10
6.1450
 20
18.9900
 30
0.0000
 11
7.4150
 21
18.9900
 31
0.0000
  0
LINE
  8
51
 10
7.4150
 20
18.9900
 30
0.0000
 11
8.0500
 21
18.3550
 31
0.0000
  0
LINE
  8
51
 10
8.0500
 20
18.3550
 30
0.0000
 11
8.0500
 21
17.0850
 31
0.0000
  0
LINE
  8
51
 10
8.0500
 20
17.0850
 30
0.0000
 11
7.4150
 21
16.4500
 31
0.0000
  0
LINE
  8
51
 10
7.4150
 20
16.4500
 30
0.0000
 11
6.1450
 21
16.4500
 31
0.0000
  0
LINE
  8
51
 10
6.1450
 20
16.4500
 30
0.0000
 11
5.5100
 21
17.0850
 31
0.0000
  0
LINE
  8
51
 10
2.9700
 20
18.3550
 30
0.0000
 11
2.9700
 21
17.0850
 31
0.0000
  0
LINE
  8
51
 10
3.6050
 20
18.9900
 30
0.0000
 11
2.9700
 21
18.3550
 31
0.0000
  0
LINE
  8
51
 10
2.9700
 20
17.0850
 30
0.0000
 11
3.6050
 21
16.4500
 31
0.0000
  0
LINE
  8
51
 10
4.8750
 20
16.4500
 30
0.0000
 11
3.6050
 21
16.4500
 31
0.0000
  0
LINE
  8
51
 10
21.3850
 20
18.9900
 30
0.0000
 11
22.6550
 21
18.9900
 31
0.0000
  0
LINE
  8
51
 10
22.6550
 20
18.9900
 30
0.0000
 11
23.2900
 21
18.3550
 31
0.0000
  0
LINE
  8
51
 10
23.2900
 20
18.3550
 30
0.0000
 11
23.2900
 21
17.0850
 31
0.0000
  0
LINE
  8
51
 10
23.2900
 20
17.0850
 30
0.0000
 11
22.6550
 21
16.4500
 31
0.0000
  0
LINE
  8
51
 10
21.3850
 20
18.9900
 30
0.0000
 11
20.7500
 21
18.3550
 31
0.0000
  0
LINE
  8
51
 10
20.7500
 20
17.0850
 30
0.0000
 11
21.3850
 21
16.4500
 31
0.0000
  0
LINE
  8
51
 10
22.6550
 20
16.4500
 30
0.0000
 11
21.3850
 21
16.4500
 31
0.0000
  0
INSERT
  8
51
  2
RECT
 10
19.4800
 20
17.7200
 30
0.0000
 41
0.5080
 42
0.5080
 43
1.0000
 50
0.0000
  0
INSERT
  8
51
  2
RECT
 10
16.9400
 20
17.7200
 30
0.0000
 41
0.5080
 42
0.5080
 43
1.0000
 50
0.0000
  0
INSERT
  8
51
  2
RECT
 10
14.4000
 20
17.7200
 30
0.0000
 41
0.5080
 42
0.5080
 43
1.0000
 50
0.0000
  0
INSERT
  8
51
  2
RECT
 10
11.8600
 20
17.7200
 30
0.0000
 41
0.5080
 42
0.5080
 43
1.0000
 50
0.0000
  0
INSERT
  8
51
  2
RECT
 10
9.3200
 20
17.7200
 30
0.0000
 41
0.5080
 42
0.5080
 43
1.0000
 50
0.0000
  0
INSERT
  8
51
  2
RECT
 10
6.7800
 20
17.7200
 30
0.0000
 41
0.5080
 42
0.5080
 43
1.0000
 50
0.0000
  0
INSERT
  8
51
  2
RECT
 10
4.2400
 20
17.7200
 30
0.0000
 41
0.5080
 42
0.5080
 43
1.0000
 50
0.0000
  0
INSERT
  8
51
  2
RECT
 10
22.0200
 20
17.7200
 30
0.0000
 41
0.5080
 42
0.5080
 43
1.0000
 50
0.0000
  0
INSERT
  8
17
  2
ROUNDP
 10
4.2400
 20
17.7200
 30
0.0000
 41
1.6160
 42
1.6160
 43
1.0000
 50
90.0000
  0
INSERT
  8
17
  2
ROUNDP
 10
4.2400
 20
17.7200
 30
0.0000
 41
1.6160
 42
1.6160
 43
1.0000
 50
90.0000
  0
INSERT
  8
17
  2
ROUNDP
 10
6.7800
 20
17.7200
 30
0.0000
 41
1.6160
 42
1.6160
 43
1.0000
 50
90.0000
  0
INSERT
  8
17
  2
ROUNDP
 10
6.7800
 20
17.7200
 30
0.0000
 41
1.6160
 42
1.6160
 43
1.0000
 50
90.0000
  0
INSERT
  8
17
  2
ROUNDP
 10
9.3200
 20
17.7200
 30
0.0000
 41
1.6160
 42
1.6160
 43
1.0000
 50
90.0000
  0
INSERT
  8
17
  2
ROUNDP
 10
9.3200
 20
17.7200
 30
0.0000
 41
1.6160
 42
1.6160
 43
1.0000
 50
90.0000
  0
INSERT
  8
17
  2
ROUNDP
 10
11.8600
 20
17.7200
 30
0.0000
 41
1.6160
 42
1.6160
 43
1.0000
 50
90.0000
  0
INSERT
  8
17
  2
ROUNDP
 10
11.8600
 20
17.7200
 30
0.0000
 41
1.6160
 42
1.6160
 43
1.0000
 50
90.0000
  0
INSERT
  8
17
  2
ROUNDP
 10
14.4000
 20
17.7200
 30
0.0000
 41
1.6160
 42
1.6160
 43
1.0000
 50
90.0000
  0
INSERT
  8
17
  2
ROUNDP
 10
14.4000
 20
17.7200
 30
0.0000
 41
1.6160
 42
1.6160
 43
1.0000
 50
90.0000
  0
INSERT
  8
17
  2
ROUNDP
 10
16.9400
 20
17.7200
 30
0.0000
 41
1.6160
 42
1.6160
 43
1.0000
 50
90.0000
  0
INSERT
  8
17
  2
ROUNDP
 10
16.9400
 20
17.7200
 30
0.0000
 41
1.6160
 42
1.6160
 43
1.0000
 50
90.0000
  0
INSERT
  8
17
  2
ROUNDP
 10
19.4800
 20
17.7200
 30
0.0000
 41
1.6160
 42
1.6160
 43
1.0000
 50
90.0000
  0
INSERT
  8
17
  2
ROUNDP
 10
19.4800
 20
17.7200
 30
0.0000
 41
1.6160
 42
1.6160
 43
1.0000
 50
90.0000
  0
INSERT
  8
17
  2
ROUNDP
 10
22.0200
 20
17.7200
 30
0.0000
 41
1.6160
 42
1.6160
 43
1.0000
 50
90.0000
  0
INSERT
  8
17
  2
ROUNDP
 10
22.0200
 20
17.7200
 30
0.0000
 41
1.6160
 42
1.6160
 43
1.0000
 50
90.0000
  0
LINE
  8
51
 10
1.0650
 20
13.9100
 30
0.0000
 11
0.4300
 21
14.5450
 31
0.0000
  0
LINE
  8
51
 10
0.4300
 20
14.5450
 30
0.0000
 11
0.4300
 21
15.8150
 31
0.0000
  0
LINE
  8
51
 10
0.4300
 20
15.8150
 30
0.0000
 11
1.0650
 21
16.4500
 31
0.0000
  0
LINE
  8
51
 10
1.0650
 20
16.4500
 30
0.0000
 11
2.3350
 21
16.4500
 31
0.0000
  0
LINE
  8
51
 10
2.3350
 20
16.4500
 30
0.0000
 11
2.9700
 21
15.8150
 31
0.0000
  0
LINE
  8
51
 10
2.9700
 20
15.8150
 30
0.0000
 11
2.9700
 21
14.5450
 31
0.0000
  0
LINE
  8
51
 10
2.9700
 20
14.5450
 30
0.0000
 11
2.3350
 21
13.9100
 31
0.0000
  0
LINE
  8
51
 10
0.4300
 20
9.4650
 30
0.0000
 11
0.4300
 21
10.7350
 31
0.0000
  0
LINE
  8
51
 10
0.4300
 20
10.7350
 30
0.0000
 11
1.0650
 21
11.3700
 31
0.0000
  0
LINE
  8
51
 10
1.0650
 20
11.3700
 30
0.0000
 11
2.3350
 21
11.3700
 31
0.0000
  0
LINE
  8
51
 10
2.3350
 20
11.3700
 30
0.0000
 11
2.9700
 21
10.7350
 31
0.0000
  0
LINE
  8
51
 10
1.0650
 20
11.3700
 30
0.0000
 11
0.4300
 21
12.0050
 31
0.0000
  0
LINE
  8
51
 10
0.4300
 20
12.0050
 30
0.0000
 11
0.4300
 21
13.2750
 31
0.0000
  0
LINE
  8
51
 10
0.4300
 20
13.2750
 30
0.0000
 11
1.0650
 21
13.9100
 31
0.0000
  0
LINE
  8
51
 10
1.0650
 20
13.9100
 30
0.0000
 11
2.3350
 21
13.9100
 31
0.0000
  0
LINE
  8
51
 10
2.3350
 20
13.9100
 30
0.0000
 11
2.9700
 21
13.2750
 31
0.0000
  0
LINE
  8
51
 10
2.9700
 20
13.2750
 30
0.0000
 11
2.9700
 21
12.0050
 31
0.0000
  0
LINE
  8
51
 10
2.9700
 20
12.0050
 30
0.0000
 11
2.3350
 21
11.3700
 31
0.0000
  0
LINE
  8
51
 10
1.0650
 20
6.2900
 30
0.0000
 11
0.4300
 21
6.9250
 31
0.0000
  0
LINE
  8
51
 10
0.4300
 20
6.9250
 30
0.0000
 11
0.4300
 21
8.1950
 31
0.0000
  0
LINE
  8
51
 10
0.4300
 20
8.1950
 30
0.0000
 11
1.0650
 21
8.8300
 31
0.0000
  0
LINE
  8
51
 10
1.0650
 20
8.8300
 30
0.0000
 11
2.3350
 21
8.8300
 31
0.0000
  0
LINE
  8
51
 10
2.3350
 20
8.8300
 30
0.0000
 11
2.9700
 21
8.1950
 31
0.0000
  0
LINE
  8
51
 10
2.9700
 20
8.1950
 30
0.0000
 11
2.9700
 21
6.9250
 31
0.0000
  0
LINE
  8
51
 10
2.9700
 20
6.9250
 30
0.0000
 11
2.3350
 21
6.2900
 31
0.0000
  0
LINE
  8
51
 10
0.4300
 20
9.4650
 30
0.0000
 11
1.0650
 21
8.8300
 31
0.0000
  0
LINE
  8
51
 10
2.3350
 20
8.8300
 30
0.0000
 11
2.9700
 21
9.4650
 31
0.0000
  0
LINE
  8
51
 10
2.9700
 20
10.7350
 30
0.0000
 11
2.9700
 21
9.4650
 31
0.0000
  0
LINE
  8
51
 10
0.4300
 20
1.8450
 30
0.0000
 11
0.4300
 21
3.1150
 31
0.0000
  0
LINE
  8
51
 10
0.4300
 20
3.1150
 30
0.0000
 11
1.0650
 21
3.7500
 31
0.0000
  0
LINE
  8
51
 10
1.0650
 20
3.7500
 30
0.0000
 11
2.3350
 21
3.7500
 31
0.0000
  0
LINE
  8
51
 10
2.3350
 20
3.7500
 30
0.0000
 11
2.9700
 21
3.1150
 31
0.0000
  0
LINE
  8
51
 10
1.0650
 20
3.7500
 30
0.0000
 11
0.4300
 21
4.3850
 31
0.0000
  0
LINE
  8
51
 10
0.4300
 20
4.3850
 30
0.0000
 11
0.4300
 21
5.6550
 31
0.0000
  0
LINE
  8
51
 10
0.4300
 20
5.6550
 30
0.0000
 11
1.0650
 21
6.2900
 31
0.0000
  0
LINE
  8
51
 10
1.0650
 20
6.2900
 30
0.0000
 11
2.3350
 21
6.2900
 31
0.0000
  0
LINE
  8
51
 10
2.3350
 20
6.2900
 30
0.0000
 11
2.9700
 21
5.6550
 31
0.0000
  0
LINE
  8
51
 10
2.9700
 20
5.6550
 30
0.0000
 11
2.9700
 21
4.3850
 31
0.0000
  0
LINE
  8
51
 10
2.9700
 20
4.3850
 30
0.0000
 11
2.3350
 21
3.7500
 31
0.0000
  0
LINE
  8
51
 10
1.0650
 20
1.2100
 30
0.0000
 11
2.3350
 21
1.2100
 31
0.0000
  0
LINE
  8
51
 10
0.4300
 20
1.8450
 30
0.0000
 11
1.0650
 21
1.2100
 31
0.0000
  0
LINE
  8
51
 10
2.3350
 20
1.2100
 30
0.0000
 11
2.9700
 21
1.8450
 31
0.0000
  0
LINE
  8
51
 10
2.9700
 20
3.1150
 30
0.0000
 11
2.9700
 21
1.8450
 31
0.0000
  0
LINE
  8
51
 10
0.4300
 20
17.0850
 30
0.0000
 11
0.4300
 21
18.3550
 31
0.0000
  0
LINE
  8
51
 10
0.4300
 20
18.3550
 30
0.0000
 11
1.0650
 21
18.9900
 31
0.0000
  0
LINE
  8
51
 10
1.0650
 20
18.9900
 30
0.0000
 11
2.3350
 21
18.9900
 31
0.0000
  0
LINE
  8
51
 10
2.3350
 20
18.9900
 30
0.0000
 11
2.9700
 21
18.3550
 31
0.0000
  0
LINE
  8
51
 10
0.4300
 20
17.0850
 30
0.0000
 11
1.0650
 21
16.4500
 31
0.0000
  0
LINE
  8
51
 10
2.3350
 20
16.4500
 30
0.0000
 11
2.9700
 21
17.0850
 31
0.0000
  0
LINE
  8
51
 10
2.9700
 20
18.3550
 30
0.0000
 11
2.9700
 21
17.0850
 31
0.0000
  0
INSERT
  8
51
  2
RECT
 10
1.7000
 20
15.1800
 30
0.0000
 41
0.5080
 42
0.5080
 43
1.0000
 50
90.0000
  0
INSERT
  8
51
  2
RECT
 10
1.7000
 20
12.6400
 30
0.0000
 41
0.5080
 42
0.5080
 43
1.0000
 50
90.0000
  0
INSERT
  8
51
  2
RECT
 10
1.7000
 20
10.1000
 30
0.0000
 41
0.5080
 42
0.5080
 43
1.0000
 50
90.0000
  0
INSERT
  8
51
  2
RECT
 10
1.7000
 20
7.5600
 30
0.0000
 41
0.5080
 42
0.5080
 43
1.0000
 50
90.0000
  0
INSERT
  8
51
  2
RECT
 10
1.7000
 20
5.0200
 30
0.0000
 41
0.5080
 42
0.5080
 43
1.0000
 50
90.0000
  0
INSERT
  8
51
  2
RECT
 10
1.7000
 20
2.4800
 30
0.0000
 41
0.5080
 42
0.5080
 43
1.0000
 50
90.0000
  0
INSERT
  8
51
  2
RECT
 10
1.7000
 20
17.7200
 30
0.0000
 41
0.5080
 42
0.5080
 43
1.0000
 50
90.0000
  0
INSERT
  8
17
  2
ROUNDP
 10
1.7000
 20
2.4800
 30
0.0000
 41
1.6160
 42
1.6160
 43
1.0000
 50
180.0000
  0
INSERT
  8
17
  2
ROUNDP
 10
1.7000
 20
2.4800
 30
0.0000
 41
1.6160
 42
1.6160
 43
1.0000
 50
180.0000
  0
INSERT
  8
17
  2
ROUNDP
 10
1.7000
 20
5.0200
 30
0.0000
 41
1.6160
 42
1.6160
 43
1.0000
 50
180.0000
  0
INSERT
  8
17
  2
ROUNDP
 10
1.7000
 20
5.0200
 30
0.0000
 41
1.6160
 42
1.6160
 43
1.0000
 50
180.0000
  0
INSERT
  8
17
  2
ROUNDP
 10
1.7000
 20
7.5600
 30
0.0000
 41
1.6160
 42
1.6160
 43
1.0000
 50
180.0000
  0
INSERT
  8
17
  2
ROUNDP
 10
1.7000
 20
7.5600
 30
0.0000
 41
1.6160
 42
1.6160
 43
1.0000
 50
180.0000
  0
INSERT
  8
17
  2
ROUNDP
 10
1.7000
 20
10.1000
 30
0.0000
 41
1.6160
 42
1.6160
 43
1.0000
 50
180.0000
  0
INSERT
  8
17
  2
ROUNDP
 10
1.7000
 20
10.1000
 30
0.0000
 41
1.6160
 42
1.6160
 43
1.0000
 50
180.0000
  0
INSERT
  8
17
  2
ROUNDP
 10
1.7000
 20
12.6400
 30
0.0000
 41
1.6160
 42
1.6160
 43
1.0000
 50
180.0000
  0
INSERT
  8
17
  2
ROUNDP
 10
1.7000
 20
12.6400
 30
0.0000
 41
1.6160
 42
1.6160
 43
1.0000
 50
180.0000
  0
INSERT
  8
17
  2
ROUNDP
 10
1.7000
 20
15.1800
 30
0.0000
 41
1.6160
 42
1.6160
 43
1.0000
 50
180.0000
  0
INSERT
  8
17
  2
ROUNDP
 10
1.7000
 20
15.1800
 30
0.0000
 41
1.6160
 42
1.6160
 43
1.0000
 50
180.0000
  0
INSERT
  8
17
  2
ROUNDP
 10
1.7000
 20
17.7200
 30
0.0000
 41
1.6160
 42
1.6160
 43
1.0000
 50
180.0000
  0
INSERT
  8
17
  2
ROUNDP
 10
1.7000
 20
17.7200
 30
0.0000
 41
1.6160
 42
1.6160
 43
1.0000
 50
180.0000
  0
LINE
  8
51
 10
18.8450
 20
3.7500
 30
0.0000
 11
20.1150
 21
3.7500
 31
0.0000
  0
LINE
  8
51
 10
20.1150
 20
3.7500
 30
0.0000
 11
20.7500
 21
3.1150
 31
0.0000
  0
LINE
  8
51
 10
20.7500
 20
3.1150
 30
0.0000
 11
20.7500
 21
1.8450
 31
0.0000
  0
LINE
  8
51
 10
20.7500
 20
1.8450
 30
0.0000
 11
20.1150
 21
1.2100
 31
0.0000
  0
LINE
  8
51
 10
15.6700
 20
3.1150
 30
0.0000
 11
16.3050
 21
3.7500
 31
0.0000
  0
LINE
  8
51
 10
16.3050
 20
3.7500
 30
0.0000
 11
17.5750
 21
3.7500
 31
0.0000
  0
LINE
  8
51
 10
17.5750
 20
3.7500
 30
0.0000
 11
18.2100
 21
3.1150
 31
0.0000
  0
LINE
  8
51
 10
18.2100
 20
3.1150
 30
0.0000
 11
18.2100
 21
1.8450
 31
0.0000
  0
LINE
  8
51
 10
18.2100
 20
1.8450
 30
0.0000
 11
17.5750
 21
1.2100
 31
0.0000
  0
LINE
  8
51
 10
17.5750
 20
1.2100
 30
0.0000
 11
16.3050
 21
1.2100
 31
0.0000
  0
LINE
  8
51
 10
16.3050
 20
1.2100
 30
0.0000
 11
15.6700
 21
1.8450
 31
0.0000
  0
LINE
  8
51
 10
18.8450
 20
3.7500
 30
0.0000
 11
18.2100
 21
3.1150
 31
0.0000
  0
LINE
  8
51
 10
18.2100
 20
1.8450
 30
0.0000
 11
18.8450
 21
1.2100
 31
0.0000
  0
LINE
  8
51
 10
20.1150
 20
1.2100
 30
0.0000
 11
18.8450
 21
1.2100
 31
0.0000
  0
LINE
  8
51
 10
11.2250
 20
3.7500
 30
0.0000
 11
12.4950
 21
3.7500
 31
0.0000
  0
LINE
  8
51
 10
12.4950
 20
3.7500
 30
0.0000
 11
13.1300
 21
3.1150
 31
0.0000
  0
LINE
  8
51
 10
13.1300
 20
3.1150
 30
0.0000
 11
13.1300
 21
1.8450
 31
0.0000
  0
LINE
  8
51
 10
13.1300
 20
1.8450
 30
0.0000
 11
12.4950
 21
1.2100
 31
0.0000
  0
LINE
  8
51
 10
13.1300
 20
3.1150
 30
0.0000
 11
13.7650
 21
3.7500
 31
0.0000
  0
LINE
  8
51
 10
13.7650
 20
3.7500
 30
0.0000
 11
15.0350
 21
3.7500
 31
0.0000
  0
LINE
  8
51
 10
15.0350
 20
3.7500
 30
0.0000
 11
15.6700
 21
3.1150
 31
0.0000
  0
LINE
  8
51
 10
15.6700
 20
3.1150
 30
0.0000
 11
15.6700
 21
1.8450
 31
0.0000
  0
LINE
  8
51
 10
15.6700
 20
1.8450
 30
0.0000
 11
15.0350
 21
1.2100
 31
0.0000
  0
LINE
  8
51
 10
15.0350
 20
1.2100
 30
0.0000
 11
13.7650
 21
1.2100
 31
0.0000
  0
LINE
  8
51
 10
13.7650
 20
1.2100
 30
0.0000
 11
13.1300
 21
1.8450
 31
0.0000
  0
LINE
  8
51
 10
8.0500
 20
3.1150
 30
0.0000
 11
8.6850
 21
3.7500
 31
0.0000
  0
LINE
  8
51
 10
8.6850
 20
3.7500
 30
0.0000
 11
9.9550
 21
3.7500
 31
0.0000
  0
LINE
  8
51
 10
9.9550
 20
3.7500
 30
0.0000
 11
10.5900
 21
3.1150
 31
0.0000
  0
LINE
  8
51
 10
10.5900
 20
3.1150
 30
0.0000
 11
10.5900
 21
1.8450
 31
0.0000
  0
LINE
  8
51
 10
10.5900
 20
1.8450
 30
0.0000
 11
9.9550
 21
1.2100
 31
0.0000
  0
LINE
  8
51
 10
9.9550
 20
1.2100
 30
0.0000
 11
8.6850
 21
1.2100
 31
0.0000
  0
LINE
  8
51
 10
8.6850
 20
1.2100
 30
0.0000
 11
8.0500
 21
1.8450
 31
0.0000
  0
LINE
  8
51
 10
11.2250
 20
3.7500
 30
0.0000
 11
10.5900
 21
3.1150
 31
0.0000
  0
LINE
  8
51
 10
10.5900
 20
1.8450
 30
0.0000
 11
11.2250
 21
1.2100
 31
0.0000
  0
LINE
  8
51
 10
12.4950
 20
1.2100
 30
0.0000
 11
11.2250
 21
1.2100
 31
0.0000
  0
LINE
  8
51
 10
3.6050
 20
3.7500
 30
0.0000
 11
4.8750
 21
3.7500
 31
0.0000
  0
LINE
  8
51
 10
4.8750
 20
3.7500
 30
0.0000
 11
5.5100
 21
3.1150
 31
0.0000
  0
LINE
  8
51
 10
5.5100
 20
3.1150
 30
0.0000
 11
5.5100
 21
1.8450
 31
0.0000
  0
LINE
  8
51
 10
5.5100
 20
1.8450
 30
0.0000
 11
4.8750
 21
1.2100
 31
0.0000
  0
LINE
  8
51
 10
5.5100
 20
3.1150
 30
0.0000
 11
6.1450
 21
3.7500
 31
0.0000
  0
LINE
  8
51
 10
6.1450
 20
3.7500
 30
0.0000
 11
7.4150
 21
3.7500
 31
0.0000
  0
LINE
  8
51
 10
7.4150
 20
3.7500
 30
0.0000
 11
8.0500
 21
3.1150
 31
0.0000
  0
LINE
  8
51
 10
8.0500
 20
3.1150
 30
0.0000
 11
8.0500
 21
1.8450
 31
0.0000
  0
LINE
  8
51
 10
8.0500
 20
1.8450
 30
0.0000
 11
7.4150
 21
1.2100
 31
0.0000
  0
LINE
  8
51
 10
7.4150
 20
1.2100
 30
0.0000
 11
6.1450
 21
1.2100
 31
0.0000
  0
LINE
  8
51
 10
6.1450
 20
1.2100
 30
0.0000
 11
5.5100
 21
1.8450
 31
0.0000
  0
LINE
  8
51
 10
2.9700
 20
3.1150
 30
0.0000
 11
2.9700
 21
1.8450
 31
0.0000
  0
LINE
  8
51
 10
3.6050
 20
3.7500
 30
0.0000
 11
2.9700
 21
3.1150
 31
0.0000
  0
LINE
  8
51
 10
2.9700
 20
1.8450
 30
0.0000
 11
3.6050
 21
1.2100
 31
0.0000
  0
LINE
  8
51
 10
4.8750
 20
1.2100
 30
0.0000
 11
3.6050
 21
1.2100
 31
0.0000
  0
LINE
  8
51
 10
21.3850
 20
3.7500
 30
0.0000
 11
22.6550
 21
3.7500
 31
0.0000
  0
LINE
  8
51
 10
22.6550
 20
3.7500
 30
0.0000
 11
23.2900
 21
3.1150
 31
0.0000
  0
LINE
  8
51
 10
23.2900
 20
3.1150
 30
0.0000
 11
23.2900
 21
1.8450
 31
0.0000
  0
LINE
  8
51
 10
23.2900
 20
1.8450
 30
0.0000
 11
22.6550
 21
1.2100
 31
0.0000
  0
LINE
  8
51
 10
21.3850
 20
3.7500
 30
0.0000
 11
20.7500
 21
3.1150
 31
0.0000
  0
LINE
  8
51
 10
20.7500
 20
1.8450
 30
0.0000
 11
21.3850
 21
1.2100
 31
0.0000
  0
LINE
  8
51
 10
22.6550
 20
1.2100
 30
0.0000
 11
21.3850
 21
1.2100
 31
0.0000
  0
INSERT
  8
51
  2
RECT
 10
19.4800
 20
2.4800
 30
0.0000
 41
0.5080
 42
0.5080
 43
1.0000
 50
0.0000
  0
INSERT
  8
51
  2
RECT
 10
16.9400
 20
2.4800
 30
0.0000
 41
0.5080
 42
0.5080
 43
1.0000
 50
0.0000
  0
INSERT
  8
51
  2
RECT
 10
14.4000
 20
2.4800
 30
0.0000
 41
0.5080
 42
0.5080
 43
1.0000
 50
0.0000
  0
INSERT
  8
51
  2
RECT
 10
11.8600
 20
2.4800
 30
0.0000
 41
0.5080
 42
0.5080
 43
1.0000
 50
0.0000
  0
INSERT
  8
51
  2
RECT
 10
9.3200
 20
2.4800
 30
0.0000
 41
0.5080
 42
0.5080
 43
1.0000
 50
0.0000
  0
INSERT
  8
51
  2
RECT
 10
6.7800
 20
2.4800
 30
0.0000
 41
0.5080
 42
0.5080
 43
1.0000
 50
0.0000
  0
INSERT
  8
51
  2
RECT
 10
4.2400
 20
2.4800
 30
0.0000
 41
0.5080
 42
0.5080
 43
1.0000
 50
0.0000
  0
INSERT
  8
51
  2
RECT
 10
22.0200
 20
2.4800
 30
0.0000
 41
0.5080
 42
0.5080
 43
1.0000
 50
0.0000
  0
INSERT
  8
17
  2
ROUNDP
 10
4.2400
 20
2.4800
 30
0.0000
 41
1.6160
 42
1.6160
 43
1.0000
 50
90.0000
  0
INSERT
  8
17
  2
ROUNDP
 10
4.2400
 20
2.4800
 30
0.0000
 41
1.6160
 42
1.6160
 43
1.0000
 50
90.0000
  0
INSERT
  8
17
  2
ROUNDP
 10
6.7800
 20
2.4800
 30
0.0000
 41
1.6160
 42
1.6160
 43
1.0000
 50
90.0000
  0
INSERT
  8
17
  2
ROUNDP
 10
6.7800
 20
2.4800
 30
0.0000
 41
1.6160
 42
1.6160
 43
1.0000
 50
90.0000
  0
INSERT
  8
17
  2
ROUNDP
 10
9.3200
 20
2.4800
 30
0.0000
 41
1.6160
 42
1.6160
 43
1.0000
 50
90.0000
  0
INSERT
  8
17
  2
ROUNDP
 10
9.3200
 20
2.4800
 30
0.0000
 41
1.6160
 42
1.6160
 43
1.0000
 50
90.0000
  0
INSERT
  8
17
  2
ROUNDP
 10
11.8600
 20
2.4800
 30
0.0000
 41
1.6160
 42
1.6160
 43
1.0000
 50
90.0000
  0
INSERT
  8
17
  2
ROUNDP
 10
11.8600
 20
2.4800
 30
0.0000
 41
1.6160
 42
1.6160
 43
1.0000
 50
90.0000
  0
INSERT
  8
17
  2
ROUNDP
 10
14.4000
 20
2.4800
 30
0.0000
 41
1.6160
 42
1.6160
 43
1.0000
 50
90.0000
  0
INSERT
  8
17
  2
ROUNDP
 10
14.4000
 20
2.4800
 30
0.0000
 41
1.6160
 42
1.6160
 43
1.0000
 50
90.0000
  0
INSERT
  8
17
  2
ROUNDP
 10
16.9400
 20
2.4800
 30
0.0000
 41
1.6160
 42
1.6160
 43
1.0000
 50
90.0000
  0
INSERT
  8
17
  2
ROUNDP
 10
16.9400
 20
2.4800
 30
0.0000
 41
1.6160
 42
1.6160
 43
1.0000
 50
90.0000
  0
INSERT
  8
17
  2
ROUNDP
 10
19.4800
 20
2.4800
 30
0.0000
 41
1.6160
 42
1.6160
 43
1.0000
 50
90.0000
  0
INSERT
  8
17
  2
ROUNDP
 10
19.4800
 20
2.4800
 30
0.0000
 41
1.6160
 42
1.6160
 43
1.0000
 50
90.0000
  0
INSERT
  8
17
  2
ROUNDP
 10
22.0200
 20
2.4800
 30
0.0000
 41
1.6160
 42
1.6160
 43
1.0000
 50
90.0000
  0
INSERT
  8
17
  2
ROUNDP
 10
22.0200
 20
2.4800
 30
0.0000
 41
1.6160
 42
1.6160
 43
1.0000
 50
90.0000
  0
LINE
  8
51
 10
18.3650
 20
11.3700
 30
0.0000
 11
17.7300
 21
12.0050
 31
0.0000
  0
LINE
  8
51
 10
17.7300
 20
12.0050
 30
0.0000
 11
17.7300
 21
13.2750
 31
0.0000
  0
LINE
  8
51
 10
17.7300
 20
13.2750
 30
0.0000
 11
18.3650
 21
13.9100
 31
0.0000
  0
LINE
  8
51
 10
18.3650
 20
13.9100
 30
0.0000
 11
19.6350
 21
13.9100
 31
0.0000
  0
LINE
  8
51
 10
19.6350
 20
13.9100
 30
0.0000
 11
20.2700
 21
13.2750
 31
0.0000
  0
LINE
  8
51
 10
20.2700
 20
13.2750
 30
0.0000
 11
20.2700
 21
12.0050
 31
0.0000
  0
LINE
  8
51
 10
20.2700
 20
12.0050
 30
0.0000
 11
19.6350
 21
11.3700
 31
0.0000
  0
LINE
  8
51
 10
17.7300
 20
6.9250
 30
0.0000
 11
17.7300
 21
8.1950
 31
0.0000
  0
LINE
  8
51
 10
17.7300
 20
8.1950
 30
0.0000
 11
18.3650
 21
8.8300
 31
0.0000
  0
LINE
  8
51
 10
18.3650
 20
8.8300
 30
0.0000
 11
19.6350
 21
8.8300
 31
0.0000
  0
LINE
  8
51
 10
19.6350
 20
8.8300
 30
0.0000
 11
20.2700
 21
8.1950
 31
0.0000
  0
LINE
  8
51
 10
18.3650
 20
8.8300
 30
0.0000
 11
17.7300
 21
9.4650
 31
0.0000
  0
LINE
  8
51
 10
17.7300
 20
9.4650
 30
0.0000
 11
17.7300
 21
10.7350
 31
0.0000
  0
LINE
  8
51
 10
17.7300
 20
10.7350
 30
0.0000
 11
18.3650
 21
11.3700
 31
0.0000
  0
LINE
  8
51
 10
18.3650
 20
11.3700
 30
0.0000
 11
19.6350
 21
11.3700
 31
0.0000
  0
LINE
  8
51
 10
19.6350
 20
11.3700
 30
0.0000
 11
20.2700
 21
10.7350
 31
0.0000
  0
LINE
  8
51
 10
20.2700
 20
10.7350
 30
0.0000
 11
20.2700
 21
9.4650
 31
0.0000
  0
LINE
  8
51
 10
20.2700
 20
9.4650
 30
0.0000
 11
19.6350
 21
8.8300
 31
0.0000
  0
LINE
  8
51
 10
18.3650
 20
6.2900
 30
0.0000
 11
19.6350
 21
6.2900
 31
0.0000
  0
LINE
  8
51
 10
17.7300
 20
6.9250
 30
0.0000
 11
18.3650
 21
6.2900
 31
0.0000
  0
LINE
  8
51
 10
19.6350
 20
6.2900
 30
0.0000
 11
20.2700
 21
6.9250
 31
0.0000
  0
LINE
  8
51
 10
20.2700
 20
8.1950
 30
0.0000
 11
20.2700
 21
6.9250
 31
0.0000
  0
LINE
  8
51
 10
17.7300
 20
14.5450
 30
0.0000
 11
17.7300
 21
15.8150
 31
0.0000
  0
LINE
  8
51
 10
17.7300
 20
15.8150
 30
0.0000
 11
18.3650
 21
16.4500
 31
0.0000
  0
LINE
  8
51
 10
18.3650
 20
16.4500
 30
0.0000
 11
19.6350
 21
16.4500
 31
0.0000
  0
LINE
  8
51
 10
19.6350
 20
16.4500
 30
0.0000
 11
20.2700
 21
15.8150
 31
0.0000
  0
LINE
  8
51
 10
17.7300
 20
14.5450
 30
0.0000
 11
18.3650
 21
13.9100
 31
0.0000
  0
LINE
  8
51
 10
19.6350
 20
13.9100
 30
0.0000
 11
20.2700
 21
14.5450
 31
0.0000
  0
LINE
  8
51
 10
20.2700
 20
15.8150
 30
0.0000
 11
20.2700
 21
14.5450
 31
0.0000
  0
INSERT
  8
51
  2
RECT
 10
19.0000
 20
12.6400
 30
0.0000
 41
0.5080
 42
0.5080
 43
1.0000
 50
90.0000
  0
INSERT
  8
51
  2
RECT
 10
19.0000
 20
10.1000
 30
0.0000
 41
0.5080
 42
0.5080
 43
1.0000
 50
90.0000
  0
INSERT
  8
51
  2
RECT
 10
19.0000
 20
7.5600
 30
0.0000
 41
0.5080
 42
0.5080
 43
1.0000
 50
90.0000
  0
INSERT
  8
51
  2
RECT
 10
19.0000
 20
15.1800
 30
0.0000
 41
0.5080
 42
0.5080
 43
1.0000
 50
90.0000
  0
INSERT
  8
17
  2
ROUNDP
 10
19.0000
 20
7.5600
 30
0.0000
 41
1.5000
 42
1.5000
 43
1.0000
 50
180.0000
  0
INSERT
  8
17
  2
ROUNDP
 10
19.0000
 20
7.5600
 30
0.0000
 41
1.5000
 42
1.5000
 43
1.0000
 50
180.0000
  0
INSERT
  8
17
  2
ROUNDP
 10
19.0000
 20
10.1000
 30
0.0000
 41
1.5000
 42
1.5000
 43
1.0000
 50
180.0000
  0
INSERT
  8
17
  2
ROUNDP
 10
19.0000
 20
10.1000
 30
0.0000
 41
1.5000
 42
1.5000
 43
1.0000
 50
180.0000
  0
INSERT
  8
17
  2
ROUNDP
 10
19.0000
 20
12.6400
 30
0.0000
 41
1.5000
 42
1.5000
 43
1.0000
 50
180.0000
  0
INSERT
  8
17
  2
ROUNDP
 10
19.0000
 20
12.6400
 30
0.0000
 41
1.5000
 42
1.5000
 43
1.0000
 50
180.0000
  0
INSERT
  8
17
  2
ROUNDP
 10
19.0000
 20
15.1800
 30
0.0000
 41
1.5000
 42
1.5000
 43
1.0000
 50
180.0000
  0
INSERT
  8
17
  2
ROUNDP
 10
19.0000
 20
15.1800
 30
0.0000
 41
1.5000
 42
1.5000
 43
1.0000
 50
180.0000
  0
LINE
  8
52
 10
5.5300
 20
14.0130
 30
0.0000
 11
5.5300
 21
14.2670
 31
0.0000
  0
LINE
  8
52
 10
5.4030
 20
14.1400
 30
0.0000
 11
5.6570
 21
14.1400
 31
0.0000
  0
CIRCLE
  8
20
 10
5.5300
 20
14.1400
 30
0.0000
 40
0.4500
  0
CIRCLE
  8
20
 10
10.6100
 20
13.1240
 30
0.0000
 40
0.4500
  0
CIRCLE
  8
20
 10
10.6100
 20
15.1560
 30
0.0000
 40
0.4500
  0
LINE
  8
21
 10
5.2000
 20
5.6000
 30
0.0000
 11
4.5000
 21
5.6000
 31
0.0000
  0
LINE
  8
21
 10
4.5000
 20
5.6000
 30
0.0000
 11
4.5000
 21
6.3000
 31
0.0000
  0
LINE
  8
21
 10
4.5000
 20
10.9000
 30
0.0000
 11
4.5000
 21
11.6000
 31
0.0000
  0
LINE
  8
21
 10
4.5000
 20
11.6000
 30
0.0000
 11
5.2000
 21
11.6000
 31
0.0000
  0
LINE
  8
21
 10
9.8000
 20
5.6000
 30
0.0000
 11
10.5000
 21
5.6000
 31
0.0000
  0
LINE
  8
21
 10
10.5000
 20
5.6000
 30
0.0000
 11
10.5000
 21
6.3000
 31
0.0000
  0
LINE
  8
21
 10
10.5000
 20
10.9000
 30
0.0000
 11
10.5000
 21
11.6000
 31
0.0000
  0
LINE
  8
21
 10
10.5000
 20
11.6000
 30
0.0000
 11
9.8000
 21
11.6000
 31
0.0000
  0
CIRCLE
  8
21
 10
4.9000
 20
5.0000
 30
0.0000
 40
0.2236
  0
INSERT
  8
21
  2
RECT
 10
4.8500
 20
5.9500
 30
0.0000
 41
0.7000
 42
0.7000
 43
1.0000
 50
90.0000
  0
ENDSEC
  0
EOF
